» » »

Andreas Gabalier - I Sing A Liad Für Di Tabs

Artists:  A B C D E F G H I J K L M N O P Q R S T U V W X Y Z # 

I Sing A Liad Für Di Tabs

(ver. 1) Click to play this song!
Andreas Gabalier
 Rating:
4.3/5 (26 votes)

 I Sing A Liad Für Di lessons Tabs too difficult? Try these video lessons and learn fast
 
                [Intro]
   G      +     +     +    D  +     +     +     +           +     +    +    G  +     +     +     +   
E|-----7--7--7-\5-----3--|-3-p2-----5--------------|-----5--5--5-p3----0--|-0--------3--------------|
B|-----------------------|----------------3-----3--|----------------------|----3--------------------|
G|-----------------------|-------------------------|----------------------|----------------0-----0--|
D|-----0-----------0-----|-------0-----------0-----|-----0----------0-----|-------0-----------0-----|
A|-----------------------|-0-----------0-----------|-0---------0----------|-------------2-----------|
E|-3-/-------7-----------|-------------------------|----------------------|-3-----------------------|
                                                                            
          +     +     +    D  +     +     +     +       +     +
E|-----7--7--7-\5-----3--|-3-p2-----5--------------|----0---------------|
B|-----------------------|----------------3-----3--|-3-----3-p1--0------|
G|-----------------------|-------------------------|----------------2---|
D|-----0-----------0-----|-------0-----------0-----|-------0--------0---|
A|-----------------------|-0-----------0-----------|-0-----------0------|
E|-3-/-------7-----------|-------------------------|--------------------|

[Chorus]
   G        +       +       +              +       +       +     D7       +       +       +
E|------------------------------|-0----0-----------------------|------------------------------|
B|------------------3------p0---|----------3-------3------p0---|-3----3--p1-------1-----------|
G|-0--------0-------------------|------------------------------|--------------------------2---|
D|------0---------------0-------|------0---------------0-------|------0---------------0-------|
A|--------------2---------------|--------------2---------------|-0------------0---------------|
E|-3----------------------------|-3----------------------------|------------------------------|
                    I sing a      liad für di,           und daun frogst du mi    Mogst mid mir 
                    
            +       +       +     G        +       +       +              +       +       +
E|-2----2--p0-------0-----------|-0----0-----------------------|-7-\--3-----------------------|
B|--------------------------1---|----------3-------3------p0---|----------3-------3------p0---|
G|------------------------------|------------------------------|------------------------------|
D|------0---------------0-------|------0---------------0-------|------0---------------0-------|
A|-0------------0---------------|--------------2---------------|--------------2---------------|
E|------------------------------|-3----------------------------|-7-\--------------------------|
   daunzn gehn?     I glaub i     steh auf di!     I  sing a     liad für di     und kaun di 
   
   D7       +       +              +       +               G                  +
E|---------------------------|---------------------------|------------------------|
B|-3----3--p1----------------|-3---3------p1---0---------|------------------------|
G|------------------2--------|----------------------2----|-0--------------0--h1---|
D|------0---------------0----|---------0------------0----|------0---------0-------|
A|-0------------0------------|-0---------------0---------|-----------2------------|
E|---------------------------|---------------------------|-3----------------------|
   sterndal seng,              I hob mi    verknoid in     di!

[Verse]
   D             +       +         +       +       +          A   +       +       +
E|---------------------------|------------------------------|------------------------------|
B|---------------------------|-0---0------------------------|-2---2------p0----------------|
G|-2-------------2-------2---|-------------2-------2--------|---------------------2--------|
D|------0------------0-------|---------0---------------4----|---------2---------------2----|
A|-0---------0---------------|-0---------------0------------|-0---------------0------------|
E|---------------------------|------------------------------|------------------------------|

       +       +        +         D   +       +       +              +       +       +
E|-3--\2-------0----------------|-2--p0------------------------|------------------------------|
B|------------------------------|-------------3----------------|-0---0------------------------|
G|---------------------2--------|---------------------2--------|-------------2-------2--------|
D|---------2---------------2----|---------0---------------0----|---------0---------------4----|
A|-0---------------0------------|-0---------------0------------|-0---------------0------------|
E|------------------------------|------------------------------|------------------------------|

   A   +       +       +              +       +       +          D             +       +
E|------------------------------|-3--\2-------0-------2--------|---------------------------|
B|-2---2------p0----------------|------------------------------|-3-------------------------|
G|---------------------2--------|------------------------------|---------------2-------2---|
D|---------2---------------2----|---------2---------------2----|------0------------0-------|
A|-0---------------0------------|-0---------------0------------|-0---------0---------------|
E|------------------------------|------------------------------|---------------------------|


[Intermezzo]
   C   +       +       +       +     G7  +       +       +       +         +       +       +       +
E|-0-------0-------0---0-----------|-1---1------p0-------------------|---------------------------------|
B|---------------------------------|-----------------3---------------|-3-------3-------3---3-----------|
G|-----0-------0---------------0---|---------------------0-------0---|-----0-------0---------------0---|
D|---------2---------------2-------|---------0---------------0-------|---------0---------------0-------|
A|-3-------------------------------|-----------------2---------------|-----------------2---------------|
E|-----------------3---------------|-3-------------------------------|-3-------------------------------|
   Uh      la-     lala,             so a    schena  tog,              Uh      la-     lala,       weil
   
   C   +       +       +       +         +       +       +       +     G7  +       +       +       +
E|-0---0---------------------------|-0-------0-------0---0-----------|-1---1------p0-------------------|
B|-------------3---1---------------|---------------------------------|-----------------3---------------|
G|---------------------0-------0---|-----0-------0---------------0---|---------------------0-------0---|
D|---------2---------------2-------|---------2---------------2-------|---------0---------------0-------|
A|-3---------------3---------------|-3-------------------------------|-----------------2---------------|
E|---------------------------------|-----------------3---------------|-3-------------------------------|
   i a     engal   hob.              Uh      la-     lala,       a     so a    schene  nocht,      da

       +       +       +       +     C   +       +       +       +
E|-3---3------p1---0---------------|---------------------------------|
B|-------------------------3-------|-1-------------------------------|
G|---------------------0-------0---|-----0-------0-------0-------0---|
D|---------0---------------0-------|---------2---------------2-------|
A|-----------------2---------------|-3-------------------------------|
E|-3-------------------------------|-----------------3---------------|
   himml       hod mir a   engal     brocht.

            
Submit corrections


        I Sing A Liad Für Di lessons Hard to play? Try these video lessons and learn fast I Sing A Liad Für Di lessons
        
↑ Back to top | Tablatures and chords for acoustic guitar and electric guitar, ukulele, drums are parodies/interpretations of the original songs. You may use it for private study, scholarship, research or language learning purposes only