» » »

Andreas Gabalier - Amoi Seg Ma Uns Wieder Tabs

Artists:  A B C D E F G H I J K L M N O P Q R S T U V W X Y Z # 

Amoi Seg Ma Uns Wieder Tabs

(ver. 1) Click to play this song!
Andreas Gabalier
 Rating:
1/5 (1 vote)

 Amoi Seg Ma Uns Wieder lessons Tabs too difficult? Try these video lessons and learn fast
 
                             Em                       

E||-------|-----------0--------------|
B||-------|--------0-----0-----0-----|
G||-------|-----0-----------0-----0--|
D||-------|--------------------------|
A||-------|--------------------------|
E||-------|--0-----------------------|


  Em                         C                        
  
--3--------2--------0-----|--------------------------|
-----0--------0--------0--|-----------3--------------|
--------0--------0--------|--------0-----0-----0-----|
--------------------------|-----2-----------0-----0--|
--------------------------|--------------------------|
--------------------------|--0-----------------------|


  C                          G                        

--------------------------|--------------------------|
--3--------1--------0-----|-----------0--------------|
-----0--------0--------0--|--------0-----0-----0-----|
--------2--------2--------|-----0-----------0-----0--|
--------------------------|--------------------------|
--------------------------|--3-----------------------|


  G                          D                        

--------------------------|--------------------------|
--0--------1--------0-----|-----------3--------------|
-----0--------0--------0--|--------2-----2-----2-----|
--------0--------0--------|-----0-----------0-----0--|
--------------------------|--------------------------|
--------------------------|--2-----------------------|



--2-----------------------|-----||
-----------3--------------|-----||
-----2--------2-----2-----|-----||
--------0--------0-----0--|-----||
--------------------------|-----||
--------------------------|-----||

            
Submit corrections


        Amoi Seg Ma Uns Wieder lessons Hard to play? Try these video lessons and learn fast Amoi Seg Ma Uns Wieder lessons
        
↑ Back to top | Tablatures and chords for acoustic guitar and electric guitar, ukulele, drums are parodies/interpretations of the original songs. You may use it for private study, scholarship, research or language learning purposes only