» » »

Andreas Bourani - Delirium Tabs

Artists:  A B C D E F G H I J K L M N O P Q R S T U V W X Y Z # 

Delirium Tabs

(ver. 1) Click to play this song!
Andreas Bourani
 Rating:
4.3/5 (28 votes)

 Delirium  lessons Tabs too difficult? Try these video lessons and learn fast
 
                Tuning: Standard Tuning, cappo on 5th

e|--------------------------------------------------------------------------------------|
B|-----------------------------------------1----------------------1---------------------|
G|------------------0---------------0-----------------------0---------------------------|
D|-----------2-------------0h 2-------------------2h 3----------------------------------|
A|-----3--------------------------------------------------------------------------------|
E|--------------------------------------------------------------------------------------|

e|----------------------------------------------------------------3-------------------|
B|-----------------------------------------1------------------------------------------|
G|------------------0---------------0-----------------------0-------------------------|
D|-----------2-------------0h 2-------------------2h 3--------------------------------|
A|-----3------------------------------------------------------------------------------|
E|------------------------------------------------------------------------------------|

Here he starts singing..

e|-------------------------------------------------------------------|
B|-----------------------------------------1----------------------1--|
G|------------------0---------------0-----------------------0--------|           X3
D|-----------2-------------0h 2-------------------2h 3---------------|
A|-----3-------------------------------------------------------------|
E|-------------------------------------------------------------------|

e|----------------------------------------------------------------3---------------------|
B|-----------------------------------------1--------------------------------------------|
G|------------------0---------------0-----------------------0---------------------------|
D|-----------2-------------0h 2-------------------2h 3----------------------------------|
A|-----3--------------------------------------------------------------------------------|
E|--------------------------------------------------------------------------------------|

And so on..

Chords should be Am, C and Em with first finger on first fret on b site            
Submit corrections


        Delirium  lessons Hard to play? Try these video lessons and learn fast Delirium  lessons
        
↑ Back to top | Tablatures and chords for acoustic guitar and electric guitar, ukulele, drums are parodies/interpretations of the original songs. You may use it for private study, scholarship, research or language learning purposes only