» » »

Andreas Bourani - Alles Nur In Meinem Kopf Tabs

Artists:  A B C D E F G H I J K L M N O P Q R S T U V W X Y Z # 

Alles Nur In Meinem Kopf Tabs

(ver. 2) Click to play this song!
Andreas Bourani
 Rating:
2.2/5 (23 votes)

 Alles Nur In Meinem Kopf lessons Tabs too difficult? Try these video lessons and learn fast
 
                NO CAPO

Standard Tuning

Intro:

e|--------------|--------------|--------------|--------------|
H|--------3-----|--------2-----|--------0-----|--------2-----|
G|-----2--------|-----2--------|-----2--------|-----2--------|
D|0-------------|--------------|--------------|--------------|
A|--------------|0-------------|--------------|2-------------|
E|--------------|--------------|2-------------|--------------|


|--------------|--------------|--------------|--------------|
|--------3-----|--------2-----|--------0-----|--------------|
|-----2--------|-----2--------|-----2--------|-----2--1-----|
|0-------------|--------------|--------------|--------------|
|--------------|0-------------|--------------|2-------------|
|--------------|--------------|2-------------|--------------|

Vers :

e|--------------|--------------|--------------|-------------|
H|----5-----5---|----5-----5---|----5-----5---|----5-----5--|
G|--2-----2---2-|--2-----2---2-|--2-----2---2-|--2-----2---2|
D|4-----4-------|--------------|0-----0-------|-------------|
A|--------------|4-----4-------|--------------|0-----0------|
E|--------------|--------------|--------------|-------------|

Chorus :

Im Chorus spielt er das Intro nochmal, ich habe hier einfach meine Version 
hingeschrieben, welche meiner Meinung
nach auch passt

He's playing the Intro again, but that is my verion which fits in my opinion ( sry for 
my bad english )

         D                 A              fis               E
e|----------------|----------------|----------------|----------------|
H|----5-----5-----|----5-----5-----|----5-----5-----|----5-----5-----|
G|--2-----2-----2-|--2-----2-----2-|--2-----2-----2-|--2-----2-----2-|
D|0-----0-----0---|----------------|4-----4-----4---|----------------|
A|----------------|0-----0-----0---|----------------|----------------|
E|----------------|----------------|----------------|0-----0-----0---|

Bridge = Chorus            
Submit corrections


        Alles Nur In Meinem Kopf lessons Hard to play? Try these video lessons and learn fast Alles Nur In Meinem Kopf lessons
        
↑ Back to top | Tablatures and chords for acoustic guitar and electric guitar, ukulele, drums are parodies/interpretations of the original songs. You may use it for private study, scholarship, research or language learning purposes only