» » »

Andrea Bocelli - Con Te Partiro Tabs

Artists:  A B C D E F G H I J K L M N O P Q R S T U V W X Y Z # 

Con Te Partiro Tabs

(ver. 2) Click to play this song!
Andrea Bocelli
 Rating:
3.1/5 (29 votes)

 Con Te Partiro lessons Tabs too difficult? Try these video lessons and learn fast
 
                Tuning: Standard
                                                         strum it
e|------------------------------------------------------------5---------------|
B|------------------------------------------3----------------5----------------|
G|----------2---------------2---------------4---------4-----6-----------------|
D|--------4---4-----------4---4-----------4---4-----5------7------------------|
A|--5---5-------5---4---4-------4---2---2-------4-5-------7-------------------|
E|-------------------------------------------------------5--------------------|

e|---------------------------------------------------------------------------|
B|--------3------------2---5-3-----3------------3---5-5/7-7------7-5---------|
G|------2---2--------2-----------2------------0-------------4----6-6---------|
D|----4-------4----2-----2-----4------------4-----4-----------4--7-7---------|
A|--5------------0-----------------------------------------------------------|
E|-----------------------------------3-4-5-----------------------------------|

e|----------------10-9----10-9h10p--------------------0------0---------------|
B|--8-7-------7--------10----------10-8-10----7-------5--8-7-5---------------|
G|------7---7---7---------------------------7---7-----4--------7-6b----------|
D|--------7--------------------------------7------7---5----------------------|
A|---------------------------------------------------------------------------|
E|---------------------------------------------------------------------------|
                                                                     strum it
e|---------------------------------------------------------3--2------------0-|
B|---------------------------------5-5/7/8-7b--------------0--0--0-0------2--|
G|------4---4-6-76-76-76-76-76-76-------------7b-6h7p-4-6--4---4-4-4-----2---|
D|--5-7---5------------------------------------------------5------------2----|
A|---------------------------------------------------------------------0-----|
E|--------------------------------------------------------------------0------|
            
Submit corrections


        Con Te Partiro lessons Hard to play? Try these video lessons and learn fast Con Te Partiro lessons
        
↑ Back to top | Tablatures and chords for acoustic guitar and electric guitar, ukulele, drums are parodies/interpretations of the original songs. You may use it for private study, scholarship, research or language learning purposes only