» » »

Andrea Bocelli - Besame Mucho Chords

Artists:  A B C D E F G H I J K L M N O P Q R S T U V W X Y Z # 

Besame Mucho Chords

(ver. 2) Click to play this song!
Andrea Bocelli
 Rating:
2.4/5 (24 votes)

 Besame Mucho lessons Tabs too difficult? Try these video lessons and learn fast
 
                Chords

     Cm   Fm   C7   G7   G#7  D7   
e:---3----1----3----3----4----5----|
B:---4----1----5----3----4----7----|
G:---5----1----3----4----5----5----|
D:---5----3----5----3----4----7----|
A:---3----3----3----5----6----5----|
E:---x----1----x----3----4----x----|

Strumming pattern guideline    
                                
e:-3-----x--3--3-----x--3-|    ^ = up strum
B:-4-----x--4--4-----x--4-|    v = down strum
G:-5-----x--5--5-----x--5-|
D:-5-----x--5--5-----x--5-|
A:-3-----x--3--3-----x--3-|
E:-x--------x--x--------x-|
   v     v  ^  v     v  ^
   1 and 2 and 3 and 4 and


Cm              Fm
Besame, besame mucho,
         C7        Fm
como si fuera esta noche
   G7    Cm
la ultima vez;

C7             Fm
Besame, besame mucho
Cm                 G#7
que tengo miedo a perderte,
  G7        Cm
perderte despues.


Fm                   Cm
Quiero tenerte muy cerca
               G7
mirarme en tus ojos
               Cm
verte junto a mi
Fm                 Cm
piensa que tal vez manana,
               D7
yo ya estare lejos,
G#7          G7
muy lejos de ti.

Cm            Fm
Besame, besame mucho,
         C7        Fm
como si fuera esta noche
   G7     Cm
la ultima vez;

C7              Fm
Besame, besame mucho
Cm                 G#7
que tengo miedo a perderte,
 G7          Cm      
perderte despues.
            
Submit corrections


        Besame Mucho lessons Hard to play? Try these video lessons and learn fast Besame Mucho lessons
        
↑ Back to top | Tablatures and chords for acoustic guitar and electric guitar, ukulele, drums are parodies/interpretations of the original songs. You may use it for private study, scholarship, research or language learning purposes only