Home » A » Anastacia »

Anastacia - Everything Burns Bass

Artists:  A B C D E F G H I J K L M N O P Q R S T U V W X Y Z # 

Everything Burns Bass

(ver. 1) Click to play this song!
Anastacia
Band: Anastacia feat. Ben Moody

Start with the first Chorus:

Chorus:
G|-------------------------------------------------|
D|-------------------------------------------------|
A|--2--2--2----------------------------------------|
E|---------------3---3---3----0--0---0----5--5--5--|  2X

Verse:
G|---------------------------------|
D|---------------------------------|
A|--2-----0------------------------|
E|-----------------2--2--3------3--|

G|---------------------------------------|
D|---------------------------------------|
A|--2-----2-0-------0--------------------|
E|-----------------------2---2--3-----3--|

G|------------------------------------------------------|
D|------------------------------------------------------|
A|--2-----2-0-------0-----------------------------------|
E|-----------------------2---2--3-----3--3--3--2--2--2--|

Chorus:
G|-------------------------------------------------|
D|-------------------------------------------------|
A|--2--2--2----------------------------------------|
E|---------------3---3---3----0--0---0----5--5--5--|  2X

Bridge:
G|-------------------------------------------------------------------|
D|-------------------------------------------------------------------|
A|--2-2-2-2-2----2---------------------------------------------------|
E|---------------------3-3-3-3-3---3--0-0-0-0-0----0--5-5-5-5-5---5--|  2X

Chorus:
G|-------------------------------------------------------------------|
D|-------------------------------------------------------------------|
A|--2-2-2-2-2----2---------------------------------------------------|
E|---------------------3-3-3-3-3---3--0-0-0-0-0----0--5-5-5-5-5---5--|	2X

G|----------------------------------------------------------------|
D|----------------------------------------------------------------|
A|--2--X-X--2----2------------------------------------------------|
E|---------------------3-X-X-3----3--0-X-X-0-----0--5-X-X-5----5--|	2X

End:
G|-------------------------------------------------------------------------|
D|-------------------------------------------------------------------------|
A|--2-------------------------------------------------------------------2--|
E|---------------------3--------------0--------------5---------------------|

Enjoy!	
            
Submit corrections

↑ Back to top | Tablatures and chords for acoustic guitar and electric guitar, ukulele, drums are parodies/interpretations of the original songs. You may use it for private study, scholarship, research or language learning purposes only