Home » A » Anastacia »

Anastacia - Everything Burns Tabs

Artists:  A B C D E F G H I J K L M N O P Q R S T U V W X Y Z # 

Everything Burns Tabs

(ver. 1) Click to play this song!
Anastacia

This is an awesome song by Ben Moody and Anastacia. Its quite easy to play and has been
set out such that the verses are tabbed while the chorus is in chord pattern. I found
this is easier to follow. Many of the tabs out there are wrong and even the lyrics are
wrong.

Standard Tuning (EADGBe)

CHORDS (according to EADGBe pattern):
G:320002 F#:244322 Bm:024432 Em:011000 A:001110

Intro / Verse:

e|-0---0-0-0-0---0-0--0-0-0-0-|-0---0-0-0-0---0-0--0-0-0-0-|
B|-3---3-3-3-3---3-3--3-3-3-3-|-2---2-2-2-2---2-2--2-2-2-2-|
G|-4---4-4-4-4---4-4--4-4-4-4-|-4---4-4-4-4---4-4--4-4-4-4-|
D|-4---4-4-4-4---4-4--4-4-4-4-|-4---4-4-4-4---4-4--4-4-4-4-|
E|-2---2-2-2-2---2-2--2-2-2-2-|-0---0-0-0-0---0-0--0-0-0-0-|
E|----------------------------|----------------------------|

e|----------------------------|-0---0-0-0-0---0-0--0-0-0-0-|
B|-3---3-3-3-3---3-3--3-3-3-3-|-3---3-3-3-3---3-3--3-3-3-3-|
G|-4---4-4-4-4---4-4--4-4-4-4-|-4---4-4-4-4---4-4--4-4-4-4-|
D|-4---4-4-4-4---4-4--4-4-4-4-|-4---4-4-4-4---4-4--4-4-4-4-|
A|-x---x-x-x-x---x-x--x-x-x-x-|-x---x-x-x-x---x-x--x-x-x-x-|
E|-2---2-2-2-2---2-2--2-2-2-2-|-3---3-3-3-3---3-3--3-3-3-3-|

She sits in her corner
Singing herself to sleep
Wrapped in all of the promises
That no one seems to keep
She no longer cries to herself
No tears left to wash away
Just diaries of empty pages
Feelings gone a stray

Chorus:
G            F#
But she will sing
                Bm                  G
Till everything burns while everyone screams
              Em              A
burning their lies burning my dreams
            Bm                   G
all of this hate and all of this pain
            Em                  A
burn it all down cause my anger reigns till everything burns


Verse 2:

e|-0---0-0-0-0---0-0--0-0-0-0-|-0---0-0-0-0---0-0--0-0-0-0-|
B|-3---3-3-3-3---3-3--3-3-3-3-|-2---2-2-2-2---2-2--2-2-2-2-|
G|-4---4-4-4-4---4-4--4-4-4-4-|-4---4-4-4-4---4-4--4-4-4-4-|
D|-4---4-4-4-4---4-4--4-4-4-4-|-4---4-4-4-4---4-4--4-4-4-4-|
E|-2---2-2-2-2---2-2--2-2-2-2-|-0---0-0-0-0---0-0--0-0-0-0-|
E|----------------------------|----------------------------|

e|----------------------------|-0---0-0-0-0---0-0--0-0-0-0-|
B|-3---3-3-3-3---3-3--3-3-3-3-|-3---3-3-3-3---3-3--3-3-3-3-|
G|-4---4-4-4-4---4-4--4-4-4-4-|-4---4-4-4-4---4-4--4-4-4-4-|
D|-4---4-4-4-4---4-4--4-4-4-4-|-4---4-4-4-4---4-4--4-4-4-4-|
A|-x---x-x-x-x---x-x--x-x-x-x-|-x---x-x-x-x---x-x--x-x-x-x-|
E|-2---2-2-2-2---2-2--2-2-2-2-|-3---3-3-3-3---3-3--3-3-3-3-|


Walking through life unnoticed
Knowing that no one cares
Too consumed in their masquerade
No one sees her there

Chorus:
G             F#
And still she sings
                Bm                  G
Till everything burns while everyone screams
              Em              A
burning their lies burning my dreams
            Bm                   G
all of this hate and all of this pain
            Em                  A
burn it all down cause my anger reigns till everything burns


Final Verse/Outro:


e|-0---0-0-0-0---0-0--0-0-0-0-|-0---0-0-0-0---0-0--0-0-0-0-|
B|-3---3-3-3-3---3-3--3-3-3-3-|-2---2-2-2-2---2-2--2-2-2-2-|
G|-4---4-4-4-4---4-4--4-4-4-4-|-4---4-4-4-4---4-4--4-4-4-4-|
D|-4---4-4-4-4---4-4--4-4-4-4-|-4---4-4-4-4---4-4--4-4-4-4-|
E|-2---2-2-2-2---2-2--2-2-2-2-|-0---0-0-0-0---0-0--0-0-0-0-|
E|----------------------------|----------------------------|

e|----------------------------|-0---0-0-0-0---0-0--0-0-0-0-|
B|-3---3-3-3-3---3-3--3-3-3-3-|-3---3-3-3-3---3-3--3-3-3-3-|
G|-4---4-4-4-4---4-4--4-4-4-4-|-4---4-4-4-4---4-4--4-4-4-4-|
D|-4---4-4-4-4---4-4--4-4-4-4-|-4---4-4-4-4---4-4--4-4-4-4-|
A|-x---x-x-x-x---x-x--x-x-x-x-|-x---x-x-x-x---x-x--x-x-x-x-|
E|-2---2-2-2-2---2-2--2-2-2-2-|-3---3-3-3-3---3-3--3-3-3-3-|

Peace
            
Submit corrections

↑ Back to top | Tablatures and chords for acoustic guitar and electric guitar, ukulele, drums are parodies/interpretations of the original songs. You may use it for private study, scholarship, research or language learning purposes only