Home » A » Anamanaguchi »

Anamanaguchi - Dragons Den Tabs

Artists:  A B C D E F G H I J K L M N O P Q R S T U V W X Y Z # 

Dragons Den Tabs

(ver. 1) Click to play this song!
Anamanaguchi
Tuning:

e|---------------------------|----------|-------------------------|-------------|
B|---------------------------|----------|----1---3--1-----1--3--1-|-------------|
G|--0---2--3------2--3--2----|--0--0~---|-3------------3----------|---3---3~----|
D|-----------3--0------------|----------|-------------------------|-------------|
A|---------------------------|----------|-------------------------|-------------|
E|---------------------------|----------|-------------------------|-------------|


e|-----------------------------|--------|-------------------------|-------------|
B|-----------------------------|--------|----1---3--1-----1---3--1|-------------|
G|----0---2--3--------2--3--2--|--0--0~-|--3-----------3----------|---3--3~-----|
D|--------------3--0-----------|--------|-------------------------|-------------|
A|-----------------------------|--------|-------------------------|-------------|
E|-----------------------------|--------|-------------------------|-------------|

e|--3------5------6----10--11--10---8-|---------------------------------------------------|
B|-----3-------3----------------------|---------------------------------------------------|
G|------------------------------------|--12-------12-------12----12-------12-------12-----|
D|------------------------------------|-----13-------13-------13----13-------13-------13--|
A|------------------------------------|--------13-------13-------------13-------13--------|
E|------------------------------------|---------------------------------------------------|

e|-6--10--11--10---8---6--------5--6--5|---3---3~|-------|-------|-------|--------|
B|------------------------6------------|---------|-------|-------|-------|--------|
G|---------------------------7---------|---------|-------|-------|-------|--------|
D|-------------------------------------|---------|-------|-------|-------|--------|
A|-------------------------------------|---------|-------|-------|-------|--------|
E|-------------------------------------|---------|-------|-------|-------|--------|            
Submit corrections

↑ Back to top | Tablatures and chords for acoustic guitar and electric guitar, ukulele, drums are parodies/interpretations of the original songs. You may use it for private study, scholarship, research or language learning purposes only