Home » A » Anal Cunt »

Anal Cunt - Radio Hit Tabs

Artists:  A B C D E F G H I J K L M N O P Q R S T U V W X Y Z # 

Radio Hit Tabs

(ver. 1) Click to play this song!
Anal Cunt
 Rating:
4.4/5 (5 votes)
                [Intro]

B |---------------------------------------------------------------------------|
F#|---------------------------------------------------------------------------|
D |---------------------------------------------------------------------------|
A |---------------------------------------------------------------------------|
E |-4-4-4-4-4-4-4-4-4-4-5-5-5-5-----------------------------------------------| 
B |-2-2-2-2-2-0-2-2-2-2-3-3-3-3-----------------------------------------------|

B |---------------------------------------------------------------------------|
F#|---------------------------------------------------------------------------|
D |---------------------------------------------------------------------------|
A |---------------------------------------------------------------------------|
E |-4-4-4-4-4-4-4-4-4-4-5-5-5-5-----------------------------------------------| 
B |-2-2-2-2-2-0-2-2-2-2-3-3-3-3-----------------------------------------------|

B |---------------------------------------------------------------------------|
F#|---------------------------------------------------------------------------|
D |---------------------------------------------------------------------------|
A |---------------------------------------------------------------------------|
E |-4-4-4-4-4-4-4-4-4-4-5-5-5-5-----------------------------------------------| 
B |-2-2-2-2-2-0-2-2-2-2-3-3-3-3-----------------------------------------------|

B |---------------------------------------------------------------------------|
F#|---------------------------------------------------------------------------|
D |---------------------------------------------------------------------------|
A |---------------------------------------------------------------------------|
E |-4-4-4-4-4-4-4-4-4-4-5-5-5-5-----------------------------------------------| 
B |-2-2-2-2-2-0-2-2-2-2-3-3-3-3-----------------------------------------------|


[Verse]

B |---------------------------------------------------------------------------|
F#|---------------------------------------------------------------------------|
D |---------------------------------------------------------------------------|
A |---------------------------------------------------------------------------|
E |-4-4-4-4-4-4-4-4-4-4-5-5-5-5-----------------------------------------------| 
B |-2-2-2-2-2-0-2-2-2-2-3-3-3-3-----------------------------------------------|

B |---------------------------------------------------------------------------|
F#|---------------------------------------------------------------------------|
D |---------------------------------------------------------------------------|
A |---------------------------------------------------------------------------|
E |-4-4-4-4-4-4-4-4-4-4-5-5-5-5-----------------------------------------------| 
B |-2-2-2-2-2-0-2-2-2-2-3-3-3-3-----------------------------------------------|

B |---------------------------------------------------------------------------|
F#|---------------------------------------------------------------------------|
D |---------------------------------------------------------------------------|
A |---------------------------------------------------------------------------|
E |-4-4-4-4-4-4-4-4-4-4-5-5-5-5-----------------------------------------------| 
B |-2-2-2-2-2-0-2-2-2-2-3-3-3-3-----------------------------------------------|

B |---------------------------------------------------------------------------|
F#|---------------------------------------------------------------------------|
D |---------------------------------------------------------------------------|
A |---------------------------------------------------------------------------|
E |-4-4-4-4-4-4-4-4-4-4-5-5-5-5-----------------------------------------------| 
B |-2-2-2-2-2-0-2-2-2-2-3-3-3-3-----------------------------------------------|

B |---------------------------------------------------------------------------|
F#|---------------------------------------------------------------------------|
D |---------------------------------------------------------------------------|
A |---------------------------------------------------------------------------|
E |-0-0-5-4--0-0-5-4--0-0-5-4--1-1-1-1----------------------------------------| 
B |-0-0-5-4--0-0-5-4--0-0-5-4--1-1-1-1----------------------------------------| 

B |---------------------------------------------------------------------------|
F#|---------------------------------------------------------------------------|
D |---------------------------------------------------------------------------|
A |---------------------------------------------------------------------------|
E |-0-0-5-4--0-0-5-4--0-0-5-4--1-1-1-1----------------------------------------| 
B |-0-0-5-4--0-0-5-4--0-0-5-4--1-1-1-1----------------------------------------| 
B |---------------------------------------------------------------------------|
F#|---------------------------------------------------------------------------|
D |---------------------------------------------------------------------------|
A |---------------------------------------------------------------------------|
E |-4-4-4-4-4-4-4-4-4-4-5-5-5-5-----------------------------------------------| 
B |-2-2-2-2-2-0-2-2-2-2-3-3-3-3-----------------------------------------------|

B |---------------------------------------------------------------------------|
F#|---------------------------------------------------------------------------|
D |---------------------------------------------------------------------------|
A |---------------------------------------------------------------------------|
E |-4-4-4-4-4-4-4-4-4-4-5-5-5-5-----------------------------------------------| 
B |-2-2-2-2-2-0-2-2-2-2-3-3-3-3-----------------------------------------------|

B |---------------------------------------------------------------------------|
F#|---------------------------------------------------------------------------|
D |---------------------------------------------------------------------------|
A |---------------------------------------------------------------------------|
E |-4-4-4-4-4-4-4-4-4-4-5-5-5-5-----------------------------------------------| 
B |-2-2-2-2-2-0-2-2-2-2-3-3-3-3-----------------------------------------------|

B |---------------------------------------------------------------------------|
F#|---------------------------------------------------------------------------|
D |---------------------------------------------------------------------------|
A |---------------------------------------------------------------------------|
E |-4-4-4-4-4-4-4-4-4-4-5-5-5-5-----------------------------------------------| 
B |-2-2-2-2-2-0-2-2-2-2-3-3-3-3-----------------------------------------------|

B |---------------------------------------------------------------------------|
F#|---------------------------------------------------------------------------|
D |---------------------------------------------------------------------------|
A |---------------------------------------------------------------------------|
E |-0-0-5-4--0-0-5-4--0-0-5-4--1-1-1-1----------------------------------------| 
B |-0-0-5-4--0-0-5-4--0-0-5-4--1-1-1-1----------------------------------------| 

B |---------------------------------------------------------------------------|
F#|---------------------------------------------------------------------------|
D |---------------------------------------------------------------------------|
A |---------------------------------------------------------------------------|
E |-0-0-5-4--0-0-5-4--0-0-5-4--1-1-1-1----------------------------------------| 
B |-0-0-5-4--0-0-5-4--0-0-5-4--1-1-1-1----------------------------------------| 


[Outro]

B |---------------------------------------------------------------------------|
F#|---------------------------------------------------------------------------|
D |---------------------------------------------------------------------------|
A |---------------------------------------------------------------------------|
E |-4-4-4-4-4-4-4-4-4-4-5-5-5-5-----------------------------------------------| 
B |-2-2-2-2-2-0-2-2-2-2-3-3-3-3-----------------------------------------------|

B |---------------------------------------------------------------------------|
F#|---------------------------------------------------------------------------|
D |---------------------------------------------------------------------------|
A |---------------------------------------------------------------------------|
E |-4-4-4-4-4-4-4-4-4-4-5-5-5-5-----------------------------------------------| 
B |-2-2-2-2-2-0-2-2-2-2-3-3-3-3-----------------------------------------------|

B |---------------------------------------------------------------------------|
F#|---------------------------------------------------------------------------|
D |---------------------------------------------------------------------------|
A |---------------------------------------------------------------------------|
E |-4-4-4-4-4-4-4-4-5-5-5---4-4-4-4-4-4-4-4-5-5-5-----------------------------| 
B |-2-2-2-2-0-2-2-2-3-3-3---2-2-2-2-0-2-2-2-3-3-3-----------------------------| 

B |---------------------------------------------------------------------------|
F#|---------------------------------------------------------------------------|
D |---------------------------------------------------------------------------|
A |---------------------------------------------------------------------------|
E |-4-4-4-4-4-4-4-4-5-5-5---4-4-4-4-4-4-4-4-5-5-5-----------------------------| 
B |-2-2-2-2-0-2-2-2-3-3-3---2-2-2-2-0-2-2-2-3-3-3-----------------------------| 


B |---------------------------------------------------------------------------|
F#|---------------------------------------------------------------------------|
D |---------------------------------------------------------------------------|
A |---------------------------------------------------------------------------|
E |--4~----4---4-5--5-4-------------------------------------------------------|  
B |--2~----2---2-3--3-2-------------------------------------------------------|            
Submit corrections

↑ Back to top | Tablatures and chords for acoustic guitar and electric guitar, ukulele, drums are parodies/interpretations of the original songs. You may use it for private study, scholarship, research or language learning purposes only