Home » A » Anal Cunt »

Anal Cunt - Tim Is Gay Tabs

Artists:  A B C D E F G H I J K L M N O P Q R S T U V W X Y Z # 

Tim Is Gay Tabs

(ver. 1) Click to play this song!
Anal Cunt
 Rating:
4/5 (4 votes)
                V.funny song, everyone should download it or buy it or both or wotever

Heavy Dist. Bass up high.

B----4---2---4---2---4---2---0---0---0---0
F#---4---2---4---2---4---2---0---0---0---0
B----4---2---4---2---4---2---0---0---0---0



B----4---2---4---2---4---2---1---1--1--1
F#---4---2---4---2---4---2---1---1--1--1
B----4---2---4---2---4---2---1---1--1—1

B----4---2---4---2---4---2---0---0---0---0
F#---4---2---4---2---4---2---0---0---0---0
B----4---2---4---2---4---2---0---0---0---0

B----4---2---4---2---4---2---0---0---0---0
F#---4---2---4---2---4---2---0---0---0---0
B----4---2---4---2---4---2---0---0---0---0

B----4---2---4---2---4---2---1---1--1--1
F#---4---2---4---2---4---2---1---1--1--1
B----4---2---4---2---4---2---1---1—1—1

B----4---2---4---2---4---2---1---1--1--1
F#---4---2---4---2---4---2---1---1--1--1
B----4---2---4---2---4---2---1---1--1—1

And that’s it
            
Submit corrections

↑ Back to top | Tablatures and chords for acoustic guitar and electric guitar, ukulele, drums are parodies/interpretations of the original songs. You may use it for private study, scholarship, research or language learning purposes only