Home » A » Anal Cunt »

Anal Cunt - Jack Kevorkian Is Cool Tabs

Artists:  A B C D E F G H I J K L M N O P Q R S T U V W X Y Z # 

Jack Kevorkian Is Cool Tabs

(ver. 1) Click to play this song!
Anal Cunt
 Rating:
4/5 (4 votes)
                an*l CUNT - Jack Kevorkian Is Cool
album-i like it when you die


The intro riff is 
e|--------------------------------
D|--------------------------------
G|--------------------------------
B|-4-4-4-4---7-6-6---4-4--3-4-----
E|-4-4-4-4---7-6-6---4-4--3-4-----
A|-2-2-2-2---5-4-4---2-2--1-2-----

The notes in the verse riff are (pick as fast as possible)

e|----------------------------------------------------------
D|----------------------------------------------------------
G|----------------------------------------------------------
B|--4--5----2-3----xx(make that noise when you hit the------
E|--4--5----2-3-------top two strings while muting them)----
A|--2--3----0-1---------------------------------------------
play this riff four times

The chorus is (fast picking)
e|--------------------------------------------
D|--------------------------------------------
G|-4-----------------4-8-----4----------------
B|-4--5-4-----5--4-8-----4-5-4----7-5-2-------
E|-2--5-4-----5--2-6-----2-5-4----7-5-2-------
A|----3-2-----3----------------3-2-----5-3-0--
     play this riff twice

listen to the song
            
Submit corrections

↑ Back to top | Tablatures and chords for acoustic guitar and electric guitar, ukulele, drums are parodies/interpretations of the original songs. You may use it for private study, scholarship, research or language learning purposes only