Home » A » Anal Cunt »

Anal Cunt - I Respect Your Feelings As A Woman And A Human Tabs

Artists:  A B C D E F G H I J K L M N O P Q R S T U V W X Y Z # 

I Respect Your Feelings As A Woman And A Human Tabs

(ver. 1) Click to play this song!
Anal Cunt
 Rating:
4.3/5 (6 votes)
                This tab is a little off, I know, but it's still usable to sing with, and easy/fun to play.
  
E||---------------------------|---------------------------||
B||------3-----------3--------|-----3-----------3---------||
G||*--------5-----------3-----|--------3-----------5-----*||
D||*--2--------5--3--------3--|--3--------3--2--------5--*||
A||---3-----------3-----------|--3-----------3------------||
E||---------------------------|---------------------------||


---------------------------|--------------------------|
------3-----------3--------|-----3-----------3--------|
*--------5-----------3-----|--------3-----------5-----|
*--2--------5--3--------3--|--3--------3--2--------5--|
---3-----------3-----------|--3-----------3-----------|
---------------------------|--------------------------|


   
--------------------------|-----------------3---------||
-----3-----------3--------|-----3---------------------||
--------5-----------3-----|--------3-----------5-----*||
--2--------5--3--------3--|--3--------3--2--------5--*||
--3-----------3-----------|--3-----------3------------||
--------------------------|---------------------------||


    
--------------------------|-------------------------|-------------------------|
--------------5-----------|-------------3-----------|-------------2-----------|
*-------5--------5--------|-------3--------3-----3--|-------2--------2--------|
*--5-------5--------5--3--|--3-------3--------3-----|--2-------2--------2-----|
---3-------------------1--|--1----------------------|--0-------------------5--|
--------------------------|-------------------------|----------------------3--|


  
-------------------------|-------------------------|-------------------------|
-------------------------|-------------5-----------|-------------3-----------|
-------------4-----------|-------5--------5--------|-------3--------3-----3--|
-------5--------5-----5--|--5-------5--------5--3--|--3-------3--------3-----|
--5-------5--------5-----|--3-------------------1--|--1----------------------|
--3----------------------|-------------------------|-------------------------|

  
-------------------------|-------------------------|--------------------------|
-------------7-----------|-------------3-----------|--------5-----------3-----|
-------7--------7--------|-------3--------3-----3--|-----5-----5-----3-----3--|
--7-------7--------7--5--|--3-------3--------3-----|--2-----------3-----------|
--5-------------------3--|--1----------------------|--3-----------3-----------|
-------------------------|-------------------------|--------------------------|

           
--------------------------|--------------------------|--1----------------||
--------3--------3--------|--------------------------|--1----------------||
-----3-----3--------5-----|--------0-----------0-----|--2----------------||
--3-----------2--------5--|-----2-----2-----2-----2--|--3----------------||
--3-----------3-----------|--3-----------2-----------|--3----------------||
--------------------------|--------------------------|--1----------------||


Then just play that exact thing again
            
Submit corrections

↑ Back to top | Tablatures and chords for acoustic guitar and electric guitar, ukulele, drums are parodies/interpretations of the original songs. You may use it for private study, scholarship, research or language learning purposes only