Home » A » Amy Grant »

Amy Grant - El Shaddai Tabs

Artists:  A B C D E F G H I J K L M N O P Q R S T U V W X Y Z # 

El Shaddai Tabs

(ver. 2) Click to play this song!
Amy Grant
e|----0--1------1--0---3--1--0--1--0----------0--1--0----------0-------------0-|
B|--3---------3------3---------------3--1--3----------3--1--3----3--1-1-1--3---|
G|-------0--2------------------------------------------------------------------|
D|-----------------------------------------------------------------------------|
A|-----------------------------------------------------------------------------|
E|-----------------------------------------------------------------------------|

e|---0--1-----1--0----3--1--0--1--0--------------------------------------------|
B|-3--------3------3----------------3-1----3-3-3-1-3-1-0-1---------------------|
G|------0----------------------------------------------------------------------|
D|-----------------------------------------------------------------------------|
A|-----------------------------------------------------------------------------|
E|-----------------------------------------------------------------------------|            
Submit corrections

↑ Back to top | Tablatures and chords for acoustic guitar and electric guitar, ukulele, drums are parodies/interpretations of the original songs. You may use it for private study, scholarship, research or language learning purposes only