Home » A » Amos Lee »

Amos Lee - Keep It Loose Keep It Tight Tabs

Artists:  A B C D E F G H I J K L M N O P Q R S T U V W X Y Z # 

Keep It Loose Keep It Tight Tabs
Version #1
Amos Lee


Copy URL
Amos Lee

Standard Tuning (EBGDAE)

Intro/Verse:

    Asus2             Bsus4
____________________________________________________________________________
E---------0---------|-------0--------|
B------------0------|---------0------|
G-----2----------0--|---4---------0--|Repeat 3x then
D-------2------2----|-----4-----4----|
A---0---------------|-2--------------|
E-------------------|----------------|

   C#5  B5   Asus2
______________________
E------------0-------|
B------------0-------|
G--6----4----2-------|
D--6----4----2-------|
A--4----2----0-------|
E--------------------|

Prechorus:

Prechorus 1

  C#m    B   Asus2
____________________________________________________________________________
E------------0----|
B--5----4----0----|
G--6----4----2----|   Repeat 2x
D--6----4----2----|
A--4----2----0----|
E-----------------|

Prechorus 2        Prechorus 3

  C#m7   B  Asus2     Asus2               B
____________________________________________________________________________
E--4---------0----|--------0--------|---------|
B--5----4----0----|----------0------|---------|
G--4----4----2----|----2---------0--|----4----|
D--6----4----2----|------2-----2----|----4----|
A--4----2----0----|--0--------------|----2----|
E-----------------|-----------------|---------|

Chorus:

   E        A
____________________________________________________________________________
E-----------0--|
B------0----2--|
G--0h1------2--|
D--2--------2--|
A-----------0--|
E--------------|
            
Submit corrections

↑ Back to top | Tablatures and chords for acoustic guitar and electric guitar, ukulele, drums are parodies/interpretations of the original songs. You may use it for private study, scholarship, research or language learning purposes only