» » »

Amorphis - Empty Opening Tabs

Artists:  A B C D E F G H I J K L M N O P Q R S T U V W X Y Z # 

Empty Opening Tabs

(ver. 1) Click to play this song!
Amorphis
 Rating:
4.4/5 (14 votes)

 Empty Opening  lessons Tabs too difficult? Try these video lessons and learn fast
 
                
[Intro Guitar]

(lots of delay used) (x8)

C|--7---7-7---7-7---7-7---7-5---5-5---5-7---7-7---------------------------5---5-5---5-------------|
G|------------------------------------------------8---8-8---8-8---8-8---8-------------7---7-7---7-|
D#|-----------------------------------------------------------------------------------------------|
A#|-----------------------------------------------------------------------------------------------|
F|------------------------------------------------------------------------------------------------|
C|------------------------------------------------------------------------------------------------|


Back riff (comes after 4 times of intro riff)

C|--------------------------------------------|--------------------------------------|
G|--------------------------------------------|--------------------------------------|
D#|-------------------------------------------|--------------------------------------|
A#|----9--------7-----9-----------------------|--9--------7-----9--------------------|
F|-----7--------5-----7-----10------------9---|--7--------5-----7-----10-------------|
C|-----0--------------------8-------------7---|--0--------------------8--------------|

   A beautiful day when it's over
C|----------------------------------------------------------------------------------|
G|----------------------------------------------------------------------------------|
D#|---------------------------------------------------------------------------------|
A#|----9--------7-----9-------------------------------------------------------------|
F|-----7--------5-----7-----10------------9-----------------------------------------|
C|--------------------------8-------------7-----------------------------------------|

   Clouds high up in the sky
C|----------------------------------------------------------------------------------|
G|----------------------------------------------------------------------------------|
D#|---------------------------------------------------------------------------------|
A#|----9--------7-----9-------------------------------------------------------------|
F|-----7--------5-----7-----10------------------------------------------------------|
C|--------------------------8-------------------------------------------------------|

   A beautiful day when it's over
C|----------------------------------------------------------------------------------|
G|----------------------------------------------------------------------------------|
D#|---------------------------------------------------------------------------------|
A#|----9--------7-----9-------------------------------------------------------------|
F|-----7--------5-----7-----10------------9-----------------------------------------|
C|--------------------------8-------------7-----------------------------------------|

   Nobody will bury me
C|----------------------------------------------------------------------------------|
G|----------------------------------------------------------------------------------|
D#|---------------------------------------------------------------------------------|
A#|----9--------7-----9-------------------------------------------------------------|
F|-----7--------5-----7-----10-----------------------------------//////////////////-|
C|--------------------------8------------------------------------//////////////////-|


[Reverse]

(played once)

   In this wicked world the war I live
C|----------------------------------------------------------------------------------|
G|----------------------------------------------------------------------------------|
D#|---------------------------------------------------------------------------------|
A#|--9-9-9-9-9-9-9-9-x-7-7-7-x-9-9-9-9-9-9-9----------------------------------------|
F|---7-7-7-7-7-7-7-7-x-5-5-5-x-7-7-7-7-7-7-7-9-9-9-9-9-9-9-9-x-7-7-7-7-7-7-7--------|
C|-------------------------------------------7-7-7-7-7-7-7-7-x-5-5-5-5-5-5-5--------|


   In this wicked world to war I go
C|----------------------------------------------------------------------------------|
G|----------------------------------------------------------------------------------|
D#|---------------------------------------------------------------------------------|
A#|--9-9-9-9-9-9-9-9-x-7-7-7-x-9-9-9-9-9-9-9----------------------------------------|
F|---7-7-7-7-7-7-7-7-x-5-5-5-x-7-7-7-7-7-7-7-9-9-9-9-9-9-9-9-9-9-9-9-9-9-9-9--------|
C|-------------------------------------------7-7-7-7-7-7-7-7-7-7-7-7-7-7-7-7--------|

   Here's my good life, best I ever have
C|----------------------------------------------------------------------------------|
G|----------------------------------------------------------------------------------|
D#|---------------------------------------------------------------------------------|
A#|--9-9-9-9-9-9-9-9-x-7-7-7-x-9-9-9-9-9-9-9----------------------------------------|
F|---7-7-7-7-7-7-7-7-x-5-5-5-x-7-7-7-7-7-7-7-9-9-9-9-9-9-9-9-x-7-7-7-7-7-7-7--------|
C|-------------------------------------------7-7-7-7-7-7-7-7-x-5-5-5-5-5-5-5--------|


   How did I get here?
C|----------------------------------------------------------------------------------|
G|----------------------------------------------------------------------------------|
D#|---------------------------------------------------------------------------------|
A#|--9-9-9-9-9-9-9-9-x-7-7-7-x-9-9-9-9-9-9-9----------------------------------------|
F|---7-7-7-7-7-7-7-7-x-5-5-5-x-7-7-7-7-7-7-7-9-9-9-9-9-9-9-9-9-9-9-9-9-9-9-9--------|
C|-------------------------------------------7-7-7-7-7-7-7-7-7-7-7-7-7-7-7-7--------|


[Solo]

C|--------------------------------|-------------------------------------------------|
G|--------------------------------|---------------------10s12-12v-------------------|
D#|-------------------------------|-----------------9-------------------------------|
A#|-------12--9s7-----------------|--------12--9s7----------------------------------|
F|----10------------9--5s7--10-7--|----10-------------------------------------------|
C|--------------------------------|-------------------------------------------------|


   Beautiful yard, trees against the sky
C|----------------------------------------------------------------------------------|
G|----------------------------------------------------------------------------------|
D#|---------------------------------------------------------------------------------|
A#|----9--------7-----9-------------------------------------------------------------|
F|-----7--------5-----7-----10------------9-----------------------------------------|
C|--------------------------8-------------7-----------------------------------------|


   There is an empty opening
C|----------------------------------------------------------------------------------|
G|----------------------------------------------------------------------------------|
D#|---------------------------------------------------------------------------------|
A#|----9--------7-----9-------------------------------------------------------------|
F|-----7--------5-----7-----10------------------------------------------------------|
C|--------------------------8-------------------------------------------------------|


   They only live for one summer
C|----------------------------------------------------------------------------------|
G|----------------------------------------------------------------------------------|
D#|---------------------------------------------------------------------------------|
A#|----9--------7-----9-------------------------------------------------------------|
F|-----7--------5-----7-----10------------9-----------------------------------------|
C|--------------------------8-------------7-----------------------------------------|


   This world is too good for me
C|----------------------------------------------------------------------------------|
G|----------------------------------------------------------------------------------|
D#|---------------------------------------------------------------------------------|
A#|----9--------7-----9-------------------------------------------------------------|
F|-----7--------5-----7-----10-----------------------------------//////////////////-|
C|--------------------------8------------------------------------//////////////////-|


[Reverse] 

(played once)

   In this wicked world the war I live
C|----------------------------------------------------------------------------------|
G|----------------------------------------------------------------------------------|
D#|---------------------------------------------------------------------------------|
A#|--9-9-9-9-9-9-9-9-x-7-7-7-x-9-9-9-9-9-9-9----------------------------------------|
F|---7-7-7-7-7-7-7-7-x-5-5-5-x-7-7-7-7-7-7-7-9-9-9-9-9-9-9-9-x-7-7-7-7-7-7-7--------|
C|-------------------------------------------7-7-7-7-7-7-7-7-x-5-5-5-5-5-5-5--------|


   In this wicked world to war I go
C|----------------------------------------------------------------------------------|
G|----------------------------------------------------------------------------------|
D#|---------------------------------------------------------------------------------|
A#|--9-9-9-9-9-9-9-9-x-7-7-7-x-9-9-9-9-9-9-9----------------------------------------|
F|---7-7-7-7-7-7-7-7-x-5-5-5-x-7-7-7-7-7-7-7-9-9-9-9-9-9-9-9-9-9-9-9-9-9-9-9--------|
C|-------------------------------------------7-7-7-7-7-7-7-7-7-7-7-7-7-7-7-7--------|


   Here's my good life, best I ever have
C|----------------------------------------------------------------------------------|
G|----------------------------------------------------------------------------------|
D#|---------------------------------------------------------------------------------|
A#|--9-9-9-9-9-9-9-9-x-7-7-7-x-9-9-9-9-9-9-9----------------------------------------|
F|---7-7-7-7-7-7-7-7-x-5-5-5-x-7-7-7-7-7-7-7-9-9-9-9-9-9-9-9-x-7-7-7-7-7-7-7--------|
C|-------------------------------------------7-7-7-7-7-7-7-7-x-5-5-5-5-5-5-5--------|


   Why did I get here?
C|----------------------------------------------------------------------------------|
G|----------------------------------------------------------------------------------|
D#|---------------------------------------------------------------------------------|
A#|--9-9-9-9-9-9-9-9-x-7-7-7-x-9-9-9-9-9-9-9----------------------------------------|
F|---7-7-7-7-7-7-7-7-x-5-5-5-x-7-7-7-7-7-7-7-9-9-9-9-9-9-9-9-9-9-9-9-9-9-9-9--------|
C|-------------------------------------------7-7-7-7-7-7-7-7-7-7-7-7-7-7-7-7--------|


[Solo]

C|--------------------------------|-------------------------------------------------|
G|--------------------------------|----------------------s12-10-12v-----------------|
D#|-------------------------------|-----------------9-------------------------------|
A#|-------12--9s7-----------------|--------12--9s7----------------------------------|
F|----10------------9--5s7--10-7--|----10-------------------------------------------|
C|--------------------------------|-------------------------------------------------|

WOAAAAA


[Reverse]

(played once)

   In this wicked world the war I live
C|----------------------------------------------------------------------------------|
G|----------------------------------------------------------------------------------|
D#|---------------------------------------------------------------------------------|
A#|--9-9-9-9-9-9-9-9-x-7-7-7-x-9-9-9-9-9-9-9----------------------------------------|
F|---7-7-7-7-7-7-7-7-x-5-5-5-x-7-7-7-7-7-7-7-9-9-9-9-9-9-9-9-x-7-7-7-7-7-7-7--------|
C|-------------------------------------------7-7-7-7-7-7-7-7-x-5-5-5-5-5-5-5--------|


   In this wicked world to war I go
C|----------------------------------------------------------------------------------|
G|----------------------------------------------------------------------------------|
D#|---------------------------------------------------------------------------------|
A#|--9-9-9-9-9-9-9-9-x-7-7-7-x-9-9-9-9-9-9-9----------------------------------------|
F|---7-7-7-7-7-7-7-7-x-5-5-5-x-7-7-7-7-7-7-7-9-9-9-9-9-9-9-9-9-9-9-9-9-9-9-9--------|
C|-------------------------------------------7-7-7-7-7-7-7-7-7-7-7-7-7-7-7-7--------|


   Here's my good life, best I ever have
C|----------------------------------------------------------------------------------|
G|----------------------------------------------------------------------------------|
D#|---------------------------------------------------------------------------------|
A#|--9-9-9-9-9-9-9-9-x-7-7-7-x-9-9-9-9-9-9-9----------------------------------------|
F|---7-7-7-7-7-7-7-7-x-5-5-5-x-7-7-7-7-7-7-7-9-9-9-9-9-9-9-9-x-7-7-7-7-7-7-7--------|
C|-------------------------------------------7-7-7-7-7-7-7-7-x-5-5-5-5-5-5-5--------|


   Why did I get here?
C|----------------------------------------------------------------------------------|
G|----------------------------------------------------------------------------------|
D#|---------------------------------------------------------------------------------|
A#|--9-9-9-9-9-9-9-9-x-7-7-7-x-9-9-9-9-9-9-9----------------------------------------|
F|---7-7-7-7-7-7-7-7-x-5-5-5-x-7-7-7-7-7-7-7-9-9-9-9-9-9-9-9-9-9-9-9-9-9-9-9--------|
C|-------------------------------------------7-7-7-7-7-7-7-7-7-7-7-7-7-7-7-7--------|

   Intro guitar (lots of delay and wah-wah used) X8

C|--7---7-7---7-7---7-7---7-5---5-5---5-7---7-7---------------------------5---5-5---5-------------|
G|------------------------------------------------8---8-8---8-8---8-8---8-------------7---7-7---7-|
D#|-----------------------------------------------------------------------------------------------|
A#|-----------------------------------------------------------------------------------------------|
F|------------------------------------------------------------------------------------------------|
C|------------------------------------------------------------------------------------------------|

Grows into solo (C minor)

   Backing Guitar
C|------------------------------------------------------------------------------------------------|
G|------------------------------------------------------------------------------------------------|
D#|-----------------------------------------------------------------------------------------------|
A#|----9--------------------------------------------9---------------------------------------------|
F|-----7--------------------10-------9--------------7---------------------10----------------------|
C|--------------------------8--------7------------------------------------8-----------------------|            
Submit corrections


        Empty Opening  lessons Hard to play? Try these video lessons and learn fast Empty Opening  lessons
        
↑ Back to top | Tablatures and chords for acoustic guitar and electric guitar, ukulele, drums are parodies/interpretations of the original songs. You may use it for private study, scholarship, research or language learning purposes only