» » »

American Hi-Fi - The Breakup Song Bass

Artists:  A B C D E F G H I J K L M N O P Q R S T U V W X Y Z # 

The Breakup Song Bass

(ver. 1) Click to play this song!
American Hi-Fi
 Rating:
4/5 (4 votes)

 The Breakup Song lessons Tabs too difficult? Try these video lessons and learn fast
 
                G|-------------|-----------------------------------------------|
D|-------------|----------1-1--1-3-1-----------1-1--1-3-1------|
A|----1------1-|-1-1---3-3----------0-1-1---3-3----------0-1-1-|
E|-1-3---1-3---|----1-1------------------1-1-------------------|

G|------------------------------------------------------|
D|------------------011111110-----------------011111110-|
A|-1-1-------3333333---------1-1-------3333333----------|
E|------111-----------------------111-------------------|

G|----------------------------------------------------------------------|
D|------------------------011111110----------------------011111110------|
A|-11111111--------3333333---------11111111-------3333333---------11-11-|
E|---------11111111------------------------1111111----------------------|
            
Submit corrections


        The Breakup Song lessons Hard to play? Try these video lessons and learn fast The Breakup Song lessons
        
↑ Back to top | Tablatures and chords for acoustic guitar and electric guitar, ukulele, drums are parodies/interpretations of the original songs. You may use it for private study, scholarship, research or language learning purposes only