» » »

American Hi-Fi - Built For Speed Tabs

Artists:  A B C D E F G H I J K L M N O P Q R S T U V W X Y Z # 

Built For Speed Tabs

(ver. 1) Click to play this song!
American Hi-Fi
 Rating:
4/5 (7 votes)

 Built For Speed lessons Tabs too difficult? Try these video lessons and learn fast
 
                

This is personally my favorite song off the new album.  There are a couple of
parts missing from this song, mainly for the second guitar, and you'll have to
work out strumming patterns every now and then.  The solo should be quite
accurate, it just started to bore me by the end and I've added lyrics and a kind
of order at the bottom of the tab. please make corrections if you notice
something wrong with the tab, thanks.

Verse
|------------------------------------------------------------------------------
|------------------------------------------------------------------------------
|-----------------------------------------------------------8-8-8-8-8--8-8-8-8-
|-8---8-8-8-8-8--8-8-8-8-8-8-8-8-5-5-5-5-5--5-5-5-5-3-3-3-3-8-8-8-8-8--8-8-8-8-
|-8---8-8-8-8-8--8-8-8-8-8-8-8-8-5-5-5-5-5--5-5-5-5-3-3-3-3-6-6-6-6-6--6-6-6-6-
|-6---6-6-6-6-6--6-6-6-6-5-5-5-5-3-3-3-3-3--3-3-3-3-1-1-1-1--------------------

-----------------------------------------|
-----------------------------------------|
-8-8-8-8-5-5-5-5-5-5-5-5-8-8-8-8-8-8-8-8-|
-8-8-8-8-5-5-5-5-5-5-5-5-8-8-8-8-8-8-8-8-|
-5-5-5-5-3-3-3-3-3-3-3-3-6-6-6-6-6-6-6-6-|
-----------------------------------------|
                                                                              
Chorus
|-----------------------------------------------------------------
|-----------------------------------------------------------------
|-----------8--------------8--------------8----------8----------8-
|-8----3----8----8----3----8----8----3----8----10----8----10----8-
|-8----3----6----8----3----6----8----3----6----10----6----10----6-
|-6----1---------6----1---------6----1---------8----------8-------


 End of chorus/bridge                                                         
|-----------------------
|-----------------------
|-----------------------
|-8---------3-3-3-3-3-3-
|-8---------3-3-3-3-3-3-
|-6---------1-1-1-1-1-1-

 Solo
|------------------------------------------------------------------------------
|------------------------------------------------------------------6-----------
|----5-6^-5-6-6^-5-3-5-3-5^-3------5-6^-5-3-5-3-5^-3--0h3h5-3/5-6^---^6-5-3-5--
|--5--------------------------5--5---------------------------------------------
|------------------------------------------------------------------------------
|------------------------------------------------------------------------------

-------------------------|
----6--------------------|
-6^---^6/3-5-3-----------|
---------------5-3-------|
-------------------5-3-1-|
-------------------------|
                                                                              
Bridge
--------------------------------------------------------
-3--------4---------------------------------------------
---5--------5----------------12-12-12-10-10-12-12-10-10-
-----------------------------12-12-12-10-10-12-12-10-10-
-----------------------------10-10-10-8--8--10-10-8--8--
--------------------------------------------------------
(add echo and repeat)        ^ repeat a few times                        

|----8-10-8--10-8----8--
|-11--------------11----
|-----------------------
|-----------------------
|-----------------------
|-----------------------
 last chorus (repeated, 2nd guitar)                                           

|---------------------------
|---------------------------
|---------------------------
|-8-x-x-8-8-x-x-8-8-x-x-8-8-
|-8-x-x-8-8-x-x-8-8-x-x-8-8-
|-6-x-x-6-6-x-x-6-6-x-x-6-6-
  ending                                                                      

_____________________
Order:

Verse
Chorus
End of chorus/bridge
Verse
Chorus
End of chorus/bridge
(pick slide)
Solo
Bridge
Chorus
Ending

__________________________
Lyrics:

She's on Fire, Like a rocket
shining out of control
Try to stop her but you just don't
know, how to keep it inside
Can you, keep on turning out or I'll
wait for my turn
Same old story cos you never learn
how to make it in time

She don't know, what she does to me
The girl got soul, and rhythm inbetween
I crash and burn, like every other time
she's my little rock-n-roll queen
I got a girl like that
my baby's built for speed

Shoot to spill, built to spill
Got a mind? take your pills
but you're never gonna get to
what thrills, all of us inside
can you, put the pedal to the metal
this time? you gotta wanna like I want 
it alright, we gotta start tonight
            
Submit corrections


        Built For Speed lessons Hard to play? Try these video lessons and learn fast Built For Speed lessons
        
↑ Back to top | Tablatures and chords for acoustic guitar and electric guitar, ukulele, drums are parodies/interpretations of the original songs. You may use it for private study, scholarship, research or language learning purposes only