» » »

America - Sister Golden Hair Bass

Artists:  A B C D E F G H I J K L M N O P Q R S T U V W X Y Z # 

Sister Golden Hair Bass

(ver. 2) Click to play this song!
America
 Rating:
4/5 (4 votes)

 Sister Golden Hair lessons Tabs too difficult? Try these video lessons and learn fast
 
                
SISTER GOLDEN HAIR (Bassline)




 

Gtr I (E A D G) - 'Staff'


  Q=120
 4/4
  Gtr I
  Q  +S  S E Q  +S  S E   Q  +S  S E E E Q    Q  +S  S E Q  +S  S E
|-----------------------|-------------------|-1--(1)---1------------|
|-2--(2)---2------------|------------2---2--|------------1--(1)---1-|
|------------2--(2)---2-|-------------------|-----------------------|
|-----------------------|-0--(0)---0---0----|-----------------------|


  Q  +S  S E Q  E E   Q  E E Q  Q    Q  E E Q  Q    Q  +S  S E Q  +S  S E
|-------------------|--------------|--------------|------------------------|
|---------------6---|--------------|--------------|-6--(6)---6-------------|
|-------------------|--------------|-7----7----7--|------------6--(6)---6--|
|-4--(4)---4-4----4-|-5----5-0--5--|--------7-----|------------------------|


  Q  +S  S E E E E E   Q  +S  S E Q  +S  S E   Q  +S  S E E E E E
|--------------------|-----------------------|--------------------|
|------------6-----6-|-----------------------|------------4---4---|
|--------------6-----|-----------------------|--------------------|
|-4--(4)---4-----4---|-5--(5)---5-5--(5)---4-|-2--(2)---2---2---2-|


  Q  +S  S E Q  +S  S E   +Q   E E E E E E
|-----------------------|------------------|
|-----------------------|------------------|
|-4--(4)---4------------|------------------|
|------------4--(4)---5-|-(5)----5-5-4---2-|


  +Q   Q  +S  S E Q    Q  E E Q  +S  S E
|--------------------|-------------------|
|------4--(4)---4----|-------------------|
|--------------------|-0----0-0--(0)---0-|
|-(2)-------------2--|-------------------|


  Q  +S  S E Q  E E   Q  Q  H      E E E E E E E E   E E E E E E E E
|-------------------|------------|-----------------|------------------|
|-2--(2)---2----2---|-2--2-------|-----1---4-4-6-4-|-----1---4-4-6-4--|
|------------2----2-|------------|-2-2---2---------|-2-2---2----------|
|-------------------|------------|-----------------|------------------|


  E E E E E E E E   E E E E E E E E   E E E E E E  E E   E E E E E E  E E
|-----------------|-----------------|------------------|------------------|
|-----------------|-----------------|------------------|------------------|
|-----4---7-7-9-7-|-7-7-----7-7-----|-----6---9-9-11-9-|-----6---9-9-11-9-|
|-5-5---5---------|-----9-7-----9-7-|-7-7---7----------|-7-7---7----------|


  E E E E E E E E   E E E E E E E E   H    +H       H    +H
|-----------------|-----------------|-------------|-------------|
|-----------------|-----------------|-------------|-------------|
|-0-0---0-7-7-9-7-|-7-7-----7-7-----|-------------|-------------|
|-----9-----------|-----9-7-----9-7-|-2----(2)----|-4----(4)----|


  W          +H     +H       W          W
|----------|---------------|----------|------|
|----------|---------------|----------|------|
|----------|---------------|----------|------|
|-5--------|-(5)----(5)----|----------|------|


  W          W          W          W
|----------|----------|----------|------|
|----------|----------|----------|------|
|----------|----------|----------|------|
|----------|----------|----------|------|


  W          W          W          W
|----------|----------|----------|------|
|----------|----------|----------|------|
|----------|----------|----------|------|
|----------|----------|----------|------|


  Q  +S  S E Q  +S  S E   Q  +S  S E E E Q    Q  +S  S E Q  +S  S E
|-----------------------|-------------------|------------------------|
|-----------------------|-------------------|-6--(6)---6-------------|
|-7--(7)---7------------|------------7---7--|------------6--(6)---6--|
|------------7--(7)---7-|-0--(0)---0---0----|------------------------|


  Q  +S  S E Q  E E   Q  E E Q  Q    Q  E E Q  Q    Q  +S  S E Q  +S  S E
|-------------------|--------------|--------------|------------------------|
|---------------6---|--------------|--------------|-6--(6)---6-------------|
|-------------------|--------------|-7----7----7--|------------6--(6)---6--|
|-4--(4)---4-4----4-|-5----5-0--5--|--------7-----|------------------------|


  Q  +S  S E E E E E   Q  +S  S E Q  +S  S E   Q  +S  S E E E E E
|--------------------|-----------------------|--------------------|
|------------6-----6-|-----------------------|------------4---4---|
|--------------6-----|-----------------------|--------------------|
|-4--(4)---4-----4---|-5--(5)---5-5--(5)---4-|-2--(2)---2---2---2-|


  Q  +S  S E Q  +S  S E   +Q   E E E E E E
|-----------------------|------------------|
|-----------------------|------------------|
|-4--(4)---4------------|------------------|
|------------4--(4)---5-|-(5)----5-5-4---2-|


  +Q   Q  +S  S E Q    Q  E E Q  +S  S E
|--------------------|-------------------|
|------4--(4)---4----|-------------------|
|--------------------|-0----0-0--(0)---0-|
|-(2)-------------2--|-------------------|


  Q  +S  S E Q  E E   Q  Q  H      E E E E E E E E   E E E E E E E E
|-------------------|------------|-----------------|------------------|
|-2--(2)---2----2---|-2--2-------|-----1---4-4-6-4-|-----1---4-4-6-4--|
|------------2----2-|------------|-2-2---2---------|-2-2---2----------|
|-------------------|------------|-----------------|------------------|


  E E E E E E E E   E E E E E E E E   E E E E E E  E E   E E E E E E  E E
|-----------------|-----------------|------------------|------------------|
|-----------------|-----------------|------------------|------------------|
|-----4---7-7-9-7-|-7-7-----7-7-----|-----6---9-9-11-9-|-----6---9-9-11-9-|
|-5-5---5---------|-----9-7-----9-7-|-7-7---7----------|-7-7---7----------|


  E E E E E E E E   E E E E E E E E   H    +H       H    +H
|-----------------|-----------------|-------------|-------------|
|-----------------|-----------------|-------------|-------------|
|-0-0---0-7-7-9-7-|-7-7-----7-7-----|-------------|-------------|
|-----9-----------|-----9-7-----9-7-|-2----(2)----|-4----(4)----|


  W          +H     +H       E E E E E E  E E   E E E E E E  E E
|----------|---------------|------------------|------------------|
|----------|---------------|------------------|------------------|
|----------|---------------|-----6---9-9-11-9-|-----6---9-9-11-9-|
|-5--------|-(5)----(5)----|-7-7---7----------|-7-7---7----------|


  E E E E E E E E   E E E E E E E E   E E E E E E  E E   E E E E E E  E E
|-----------------|-----------------|------------------|------------------|
|-----------------|-----------------|------------------|------------------|
|-0-0---0-7-7-9-7-|-7-7-----7-7-----|-----6---9-9-11-9-|-----6---9-9-11-9-|
|-----9-----------|-----9-7-----9-7-|-7-7---7----------|-7-7---7----------|


  E E E E E E E E   E E E E E E E E   E E E E E E  E E   E E E E E E  E E
|-----------------|-----------------|------------------|------------------|
|-----------------|-----------------|------------------|------------------|
|-0-0---0-7-7-9-7-|-7-7-----7-7-----|-----6---9-9-11-9-|-----6---9-9-11-9-|
|-----9-----------|-----9-7-----9-7-|-7-7---7----------|-7-7---7----------|


  E E E E E E E E   E E E E E E E E   E E E E E E  E E   E E E E E E  E E
|-----------------|-----------------|------------------|------------------|
|-----------------|-----------------|------------------|------------------|
|-0-0---0-7-7-9-7-|-7-7-----7-7-----|-----6---9-9-11-9-|-----6---9-9-11-9-|
|-----9-----------|-----9-7-----9-7-|-7-7---7----------|-7-7---7----------|


  E E E E E E E E   E E E E +H       +W           +W
|-----------------|----------------|------------|--------|
|-----------------|----------------|------------|--------|
|-0-0---0-7-7-9-7-|-7-----7-(7)----|-(7)--------|-(7)----|
|-----9-----------|---7-0----------|------------|--------|


  +e. S Q  H
|---------------*|
|---------------*|
|-(7)-----------*|
|---------------*|




--------------------------------------------------------------------------------


Duration Legend
---------------
W - whole; H - half; Q - quarter; E - 8th; S - 16th; T - 32nd; X - 64th; a - acciaccatura
+ - note tied to previous; . - note dotted; .. - note double dotted
Uncapitalized letters represent notes that are staccato (1/2 duration)
Irregular groupings are notated above the duration line
Duration letters will always appear directly above the note/fret number it represents the
duration for.  Duration letters with no fret number below them represent rests.  Multi-
bar rests are notated in the form Wxn, where n is the number of bars to rest for.  Low
melody durations appear below the staff

Tablature Legend
----------------
 h   - hammer-on
 p   - pull-off
 b   - bend
 pb  - pre-bend
 r   - bend release (if no number after the r, then release immediately)
 /\  - slide into or out of (from/to "nowhere")
 s   - legato slide
 S   - shift slide
 - natural harmonic
[n]  - artificial harmonic
n(n) - tapped harmonic
 ~   - vibrato
 tr  - trill
 T   - tap
 TP  - trem. picking
 PM  - palm muting
\n/  - tremolo bar dip; n = amount to dip
 \n  - tremolo bar down
 n/  - tremolo bar up
/n\  - tremolo bar inverted dip
 =   - hold bend; also acts as connecting device for hammers/pulls
 <> - volume swell (louder/softer)
 x   - on rhythm slash represents muted slash
 o   - on rhythm slash represents single note slash

Misc Legend
-----------
 |  - bar
||  - double bar
||o - repeat start
o|| - repeat end
*|  - double bar (ending)
 :  - bar (freetime)
 $  - Segno
 &  - Coda
Tempo markers -  = BPM(8/16=s8/s16), where s8 = swing 8ths, s16 = swing 16ths



--------------------------------------------------------------------------------
            
Submit corrections


        Sister Golden Hair lessons Hard to play? Try these video lessons and learn fast Sister Golden Hair lessons
        
↑ Back to top | Tablatures and chords for acoustic guitar and electric guitar, ukulele, drums are parodies/interpretations of the original songs. You may use it for private study, scholarship, research or language learning purposes only