» » »

America - Riverside Tabs

Artists:  A B C D E F G H I J K L M N O P Q R S T U V W X Y Z # 

Riverside Tabs

(ver. 2) Click to play this song!
America
 Rating:
3.2/5 (26 votes)

 Riverside lessons Tabs too difficult? Try these video lessons and learn fast
 
                A5       A9       G9       D        D4/E     E4       Amaj7    Dmaj7
------   ------   ------   ------   ------   ------   ------   ------
*|||||5f ||||*|5f ||||*|3f ||||||   ||||||   ||||||   |||*||   ||||||
||||||   |||*||   |||*||   |||*|*   ||*||*   |***||   ||*|*|   |||***
|**|||   ||*||*   ||*||*   ||||*|   ||||*|   ||||||   ||||||   ||||||

Em9/7    Dmaj7/9  F        G       Motif
------   ------   ------   ------  G|--------------0
||||||   ||||||   ******   ||||||  D|----------0-2-- 
|**||*   |||**|   |||*||   |*||||  A|----0-2-3------
||||*|   ||||||   |**|||   *||||*  E|1-3------------

Intro: A5 (4bars) A9 (2bars) G9 (2bars) A9 (2bars) G9 (2bars)
       
       D  D4/E  D  D4/E  D  D4/E  E4
       
       Amaj7  Dmaj7 (4 times)

----------------5---5-7-7b(9)r-7-7-5------------------------------------------------------
----------5-5h7---7------------------7-5-5h7p5--------------------------------------------
2-4p2-4s6--------------------------------------6-4-4h6p4-2-4p2-------2-4-4b6r-2h4-2-------
---------------------------------------------------------------4-2h4----------------4-2h4-
------------------------------------------------------------------------------------------
------------------------------------------------------------------------------------------

---------------------
---------------------
---------------------
-2-------------------
---4-2h4-2-0-2-0-----
-----------------2-0-
       
       Em9/7  Dmaj7/9 (4times)
       
       A5 (4 bars)

Amaj7                  Dmaj7                      Amaj7
Living on the Riverside taking it all in my stride
                                    Dmaj7                    
Living on the Riverside, I'm taking life like a big long ride
F                                      G   |Motif|
You stay on your side and I'll stay on mine
F                                       G        |Motif|
You take what you want and I'll take the sunshine

Amaj7  Dmaj7

        Amaj7
        Dit dit dit dit do, dit dit dit dit do
(group) Dit dit dit dit do, dit dit dit dit do

        Dmaj7
        dit dit dit dit do,          dit dit dit, do do
(group) dit dit dit dit do, doo, dit dit dit dit, do do

        Amaj7
        Dit dit dit dit do, dit dit dit dit do
(group) Dit dit dit dit do, dit dit dit dit do

        Dmaj7                                          
        dit dit dit dit do,          dit dit dit, do do
(group) dit dit dit dit do, doo, dit dit dit dit, do do

F                                           G  |Motif|
I won't take you anywhere you don't want to go 
F                                           G   |Motif|   
I won't tell you anything you don't want to know 

Amaj7  Dmaj7

           Amaj7
I said the world don't owe me no living
           Dmaj7
I said the world don't owe me no living
           Amaj7
I said the world don't owe me no living
           Dmaj7
I said the world don't owe me no living

Em9/7  Dmaj7/9 (4times)
       
A5 (4bars)

Final Solo: Amaj7  Dmaj7

--------------5-7-7b(9)r-7h9p7-5---------------------5-7-7b(9)r-7h9p7----7s9-12-12s14-12--
----------5h7--------------------7-5-5h7p5-------5-7------------------10------------------
2-4p2-4s6----------------------------------6-4-6------------------------------------------
------------------------------------------------------------------------------------------
------------------------------------------------------------------------------------------
------------------------------------------------------------------------------------------

12----------------------------------------------------------------------------------------
---14-12h14p12-10----10h12p10-------------------------------------------------------------
------------------11----------11-9-9h11p9-------------------------------------------------
------------------------------------------11-9-9h11p9-7-9-9b(11)r-9h11p9-7-------7-9-7-9--
---------------------------------------------------------------------------9-7-9----------
------------------------------------------------------------------------------------------

------------------------------------------------------------------------------------------
-------------------------------------------10---------------------------------------------
------------------------------------9-9h11----11-9h11-9-9-11-9----------------------------
9b(11)r-9h11p9-7-------7---7-9-9s11----------------------------11-9-7-9-7-9b(11)r-9h11p9--
-----------------9-7h9---9----------------------------------------------------------------
------------------------------------------------------------------------------------------

----------
----------
----------
7-------7-
--9-7h9---
----------            
Submit corrections


        Riverside lessons Hard to play? Try these video lessons and learn fast Riverside lessons
        
↑ Back to top | Tablatures and chords for acoustic guitar and electric guitar, ukulele, drums are parodies/interpretations of the original songs. You may use it for private study, scholarship, research or language learning purposes only