» » »

America - All My Life Tabs

Artists:  A B C D E F G H I J K L M N O P Q R S T U V W X Y Z # 

All My Life Tabs

(ver. 4) Click to play this song!
America
 Rating:
4.3/5 (18 votes)

 All My Life lessons Tabs too difficult? Try these video lessons and learn fast
 
                [Guitar Solo]
e|----------------------------------------------------------------|
B|------------3\2-------------------------------------------------|
G|---1-1-2-4------------------------------------------------------|
D|----------------------------------------------------------------|
A|----------------------------------------------------------------|
E|----------------------------------------------------------------|

e|----------------------------------------------------------------|
B|---2-2-4-5—-5\4-------------------------------------------------|
G|----------------------------------------------------------------|
D|----------------------------------------------------------------|
A|----------------------------------------------------------------|
E|----------------------------------------------------------------|

e|----------------------------------------------------------------|
B|---------4--4h5-------------------------------------------------|
G|---4-4-6--------------------------------------------------------|
D|----------------------------------------------------------------|
A|----------------------------------------------------------------|
E|----------------------------------------------------------------|

e|----------------------------------------------------------------|
B|----------------------------------------------------------------|
G|---4-----4—-4h6-------------------------------------------------|
D|-----6-7--------------------------------------------------------|
A|----------------------------------------------------------------|
E|----------------------------------------------------------------|

e|----------------------------------------------------------------|
B|----------------------------------------------------------------|
G|---2---1-2------------------------------------------------------|
D|-----4-----2----------------------------------------------------|
A|-------------2--------------------------------------------------|
E|----------------------------------------------------------------|            
Submit corrections


        All My Life lessons Hard to play? Try these video lessons and learn fast All My Life lessons
        
↑ Back to top | Tablatures and chords for acoustic guitar and electric guitar, ukulele, drums are parodies/interpretations of the original songs. You may use it for private study, scholarship, research or language learning purposes only