Home » A » Amanda Marshall »

Amanda Marshall - Let It Rain Tabs

Artists:  A B C D E F G H I J K L M N O P Q R S T U V W X Y Z # 

Let It Rain Tabs

(ver. 2) Click to play this song!
Amanda Marshall
 Rating:
4/5 (4 votes)
                      N.C.                 C#m7                 A
e----------------------------------------------------------|
B----------------------------------------------------------|
G-----------------------------9s11-------------------------|
D-------------9-9~~------9---------9-9s11~~----------------|
A------7-9s11---11~-9s11---11---------------------7-9-7----|
E--4s7---------------------------------------4-7s9---------|


     C#m7                                              A                                        B
e--------------------------------------------------------------|
B--------------------------------------------------------------|
G---------9----------------------------------9-11b(13)-11~~----|
D-------9---11~~-------9h11-----9s11~~-9s11--------------------|
A--9s11-----------9h11------9s7--------------------------------|
E--------------------------------------------------------------|
            
Submit corrections

↑ Back to top | Tablatures and chords for acoustic guitar and electric guitar, ukulele, drums are parodies/interpretations of the original songs. You may use it for private study, scholarship, research or language learning purposes only