» » »

Alvaro Soler - Sofia Tabs

Artists:  A B C D E F G H I J K L M N O P Q R S T U V W X Y Z # 

Sofia Tabs

(ver. 1) Click to play this song!
Alvaro Soler
 Rating:
4.3/5 (16 votes)

 Sofia  lessons Tabs too difficult? Try these video lessons and learn fast
 
                Capo 2

[Intro]
   Am       C   G     F
e|-5-3-0----5-3---------------|
B|-------5------5-3---5-3-1---|
G|--------------------------2-|
D|----------------------------|
A|----------------------------|
E|----------------------------|

[Verse]
   Am          C     G      F
e|----------------------------|
B|----------------------------| 2 times play
G|----------------------------|
D|---0--0-----0--0-2---0-2-0--|
A|-2--2--2-0-2--2---0-2-----3-|
E|----------------------------|
                                           
  F           Am     G   G                           
e|-----------------------------| 2 times play
B|---------1---------1-0-1-0---|                                                           
G|-2-2-0-2---2-2-0-2-----------|                                                           
D|-----------------------------|                                                   
A|-----------------------------|                                                       
E|-----------------------------|  

e|-----------------------------|
B|-5-3-1-0---------------------|
G|-----------------------------|
D|-----------------------------|
A|-----------------------------|
E|-----------------------------|
                                             
[Chorus]
   F    C    G         Dm     F     C       G         Dm
e|-------0-----0-----------0----------0-3-0-----0-------------0--------------|
B|------1--3-3---3-1-1-3-3---1------1-------3-3---3-1---1-3-3---1------------|
G|-2-0-2------------2---------2-0-2-------------------2----------------------|
D|---------------------------------------------------------------------------|
A|---------------------------------------------------------------------------|
E|---------------------------------------------------------------------------|

   F          C     G         Dm    
e|----------------------------------------------|
B|-----1-----1------1-0--0-0--0-1-0-0-----------|
G|-2-2---2-2--0--0-0---------1--------2-2-0-2---|
D|----------------------------------------------|
A|----------------------------------------------|
E|----------------------------------------------|

   F     C     G            Dm     Am
e|---------0-----0-------------0----------------|
B|-------1---3-3---3-1---1-3-3---3-1------------|
G|-2-0-2---------------2-------------2-0-2------|
D|----------------------------------------------|
A|----------------------------------------------|
E|----------------------------------------------|

e|-5-3-0----5-3---------------|
B|-------5------5-3---5-3-1---|
G|--------------------------2-|
D|----------------------------|
A|----------------------------|
E|----------------------------|

[Verse]
   Am          C     G      F
e|----------------------------|
B|----------------------------| 2 times play
G|----------------------------|
D|---0--0-----0--0-2---0-2-0--|
A|-2--2--2-0-2--2---0-2-----3-|
E|----------------------------|
                                           
  F           Am     G   G                           
e|-----------------------------| 2 times play
B|---------1---------1-0-1-0---|                                                           
G|-2-2-0-2---2-2-0-2-----------|                                                           
D|-----------------------------|                                                   
A|-----------------------------|                                                       
E|-----------------------------|  

e|-----------------------------|
B|-5-3-1-0---------------------|
G|-----------------------------|
D|-----------------------------|
A|-----------------------------|
E|-----------------------------|

[Chorus]

   F    C    G         Dm     F     C       G         Dm
e|-------0-----0-----------0----------0-3-0-----0-------------0--------------|
B|------1--3-3---3-1-1-3-3---1------1-------3-3---3-1---1-3-3---1------------|
G|-2-0-2------------2---------2-0-2-------------------2----------------------|
D|---------------------------------------------------------------------------|
A|---------------------------------------------------------------------------|
E|---------------------------------------------------------------------------|

   F          C     G         Dm    
e|----------------------------------------------|
B|-----1-----1------1-0--0-0--0-1-0-0-----------|
G|-2-2---2-2--0--0-0---------1--------2-2-0-2---|
D|----------------------------------------------|
A|----------------------------------------------|
E|----------------------------------------------|
   F     C     G            Dm     Am
e|---------0-----0-------------0----------------|
B|-------1---3-3---3-1---1-3-3---3-1------------|
G|-2-0-2---------------2-------------2-0-2------|
D|----------------------------------------------|
A|----------------------------------------------|
E|----------------------------------------------|

   Am       C   G     F   
e|-5-3-0----5-3-------------------0-------------| play 3 times
B|-------5------5-3---5-3-1---3-3---3-1---------| 
G|--------------------------2-----------2-0-2---|
D|----------------------------------------------|
A|----------------------------------------------|
E|----------------------------------------------|

[Bridge]
  F     C   G        Dm             F      C   G      F     C   G     Dm   
e|---------------------------------|---------0----------0-------------0-3-1--|
B|---------------------------------|-------1---3-1--3-3---3-1---1-3-3--------|
G|---------------------------------|-2-0-2--------------------2--------------|
D|--------2-----2-------------2----|-----------------------------------------|
A|------3---5-5---5-3---3-5-5---5-3|-----------------------------------------|
E|5-3-5---------------5------------|-----------------------------------------|

[Outro]
  F    C   G       Dm    F  C G     Dm      F       C   G         
e|-------0-----0-----------0----------0-3-0-----0-------------0--------------|
B|------1--3-3---3-1-1-3-3---1------1-------3-3---3-1---1-3-3---1------------|
G|-2-0-2------------2---------2-0-2-------------------2----------------------|
D|---------------------------------------------------------------------------|
A|---------------------------------------------------------------------------|
E|---------------------------------------------------------------------------|

             Dm
e|----------------------------------------------|
B|-----1-----1------1-0--0-0--0-1-0-0-----------|
G|-2-2---2-2--0--0-0---------1--------2-2-0-2---|
D|----------------------------------------------|
A|----------------------------------------------|
E|----------------------------------------------|

   F     C   G           Dm
e|---------0-----0-------------0----------------|
B|-------1---3-3---3-1---1-3-3---3-1------------|
G|-2-0-2---------------2-------------2-0-2------|
D|----------------------------------------------|
A|----------------------------------------------|
E|----------------------------------------------|            
Submit corrections


        Sofia  lessons Hard to play? Try these video lessons and learn fast Sofia  lessons
        
↑ Back to top | Tablatures and chords for acoustic guitar and electric guitar, ukulele, drums are parodies/interpretations of the original songs. You may use it for private study, scholarship, research or language learning purposes only