» » »

Alt-j - Warm Foothills Tabs

Artists:  A B C D E F G H I J K L M N O P Q R S T U V W X Y Z # 

Warm Foothills Tabs

(ver. 1) Click to play this song!
Alt-j
 Rating:
4/5 (4 votes)

 Warm Foothills  lessons Tabs too difficult? Try these video lessons and learn fast
 
                Intro                    x4         roll        repeat as necessary
D|-------------------------|---------0--|-------------------------|
B|-------------------------|---------7--|-------------------------|
F|-------------------------|---------9--|-----------13------13----|
D|----5--4-----------------|---------0--|------0-------0-------0--|
A|-2--------------5-4-2----|---------0--|---12---12------12-------|
D|---------0--4------------|---------0--|-------------------------|

Verse 1                                                                                  
         x4
D|-------------------------|-----------------------|-----------------------|-----------------------|
B|-------------------------|-----------------------|-----------------------|-----------------------|
F|-----------13------13----|-----------16------16--|----------18------18---|-----------16------16--|
D|------0-------0-------0--|-----0--------0-------0|-----0-------0-------0-|-----0--------0-------0|
A|---12---12------12-------|--14---14-------14-----|--17---17------17------|--17---17-------17-----|
D|-------------------------|-----------------------|-----------------------|-----------------------|
?Dry dunes cater....?
?From the nape....?
?They watched men....?
?Like sternum to....?

                        x3
D|-------------------------|-----------------------|-----------------------|
B|-------------------------|-----------------------|-----------------------|
F|------------6------6-----|-----------8-------8---|----------8-------8----|
D|------0-------0-------0--|-----0--------0-------0|-----0-------0-------0-|
A|----5---5-------5--------|--9-----9-------9------|--7----7-------7-------|
D|-------------------------|-----------------------|-----------------------|
?Your foothills....?
                                                 x4
D|-----------------------|-------------------------|
B|-----------------------|-------------------------|
F|-----------13------13--|-----------13------13----|
D|-----0--------0-------0|------0-------0-------0--|
A|--14---14-------14-----|---12---12------12-------|
D|-----------------------|-------------------------|


Bridge/Whistle section                                                                   
        x4
D|-------------------------|-----------------------|-----------------------|-----------------------|
B|-------------------------|-----------------------|-----------------------|-----------------------|
F|-----------13------13----|-----------16------16--|----------18------18---|-----------16------16--|
D|------0-------0-------0--|-----0--------0-------0|-----0-------0-------0-|-----0--------0-------0|
A|---12---12------12-------|--14---14-------14-----|--17---17------17------|--17---17-------17-----|
D|-------------------------|-----------------------|-----------------------|-----------------------|
*Whistle*


D|-------------------------|-----------------------|-----------------------|
B|-------------------------|-----------------------|-----------------------|
F|------------6------6-----|-----------8-------8---|----------8-------8----|
D|------0-------0-------0--|-----0--------0-------0|-----0-------0-------0-|
A|----5---5-------5--------|--9-----9-------9------|--7----7-------7-------|
D|-------------------------|-----------------------|-----------------------|
*Whistle*
                                                 x4
D|-----------------------|-------------------------|
B|-----------------------|-------------------------|
F|-----------13------13--|-----------13------13----|
D|-----0--------0-------0|------0-------0-------0--|
A|--14---14-------14-----|---12---12------12-------|
D|-----------------------|-------------------------|

Verse 2                                                                                  
         x4
D|-------------------------|-----------------------|-----------------------|-----------------------|
B|-------------------------|-----------------------|-----------------------|-----------------------|
F|-----------13------13----|-----------16------16--|----------18------18---|-----------16------16--|
D|------0-------0-------0--|-----0--------0-------0|-----0-------0-------0-|-----0--------0-------0|
A|---12---12------12-------|--14---14-------14-----|--17---17------17------|--17---17-------17-----|
D|-------------------------|-----------------------|-----------------------|-----------------------|
?Iris swims....?
?Oh the weeds....?
?Blue dragonflies....?
?I tie my life....?

                         x3
D|-------------------------|-----------------------|-----------------------|
B|-------------------------|-----------------------|-----------------------|
F|------------6------6-----|-----------8-------8---|----------8-------8----|
D|------0-------0-------0--|-----0--------0-------0|-----0-------0-------0-|
A|----5---5-------5--------|--9-----9-------9------|--7----7-------7-------|
D|-------------------------|-----------------------|-----------------------|
?Your foothills....?
                                                 x4
D|-----------------------|-------------------------|
B|-----------------------|-------------------------|
F|-----------13------13--|-----------13------13----|
D|-----0--------0-------0|------0-------0-------0--|
A|--14---14-------14-----|---12---12------12-------|
D|-----------------------|-------------------------|

Outro       repeat and fade
D|-------------------------|
B|-------------------------|
F|-----------13------13----|
D|------0-------0-------0--|
A|---12---12------12-------|
D|-------------------------|            
Submit corrections


        Warm Foothills  lessons Hard to play? Try these video lessons and learn fast Warm Foothills  lessons
        
↑ Back to top | Tablatures and chords for acoustic guitar and electric guitar, ukulele, drums are parodies/interpretations of the original songs. You may use it for private study, scholarship, research or language learning purposes only