» » »

Alt-j - The Gospel Of John Hurt Tabs

Artists:  A B C D E F G H I J K L M N O P Q R S T U V W X Y Z # 

The Gospel Of John Hurt Tabs

(ver. 1) Click to play this song!
Alt-j
 Rating:
4.3/5 (29 votes)

 The Gospel Of John Hurt  lessons Tabs too difficult? Try these video lessons and learn fast
 
                [Intro]
D |----------------------------------------------------------------------------------------------------------|
A |----12-12-12----12-12-12----12----12-12-12----12-12-12----12----12-12-12----12-12-12----12----------------|
F#|----------------------------------------------------------------------------------------------------------|
D |-12----------12----------12----12----------12----------12----12----------12----------12----12-------------|
A |----------------------------------------------------------------------------------------------------------|
D |----------------------------------------------------------------------------------------------------------|

D |----------------------------------------------------------------------------------------------------------|
A |----------------------------------------------------------------------------------------------------------|
F#|----------------------------------------------------------------------------------------------------------|
D |----------------------------------------------------------------------------------------------------------|
A |----10-10-10----10-10-10----10-----15-15-15----15-15-15----15----5-5-5---5-5-5---5----3-3-3---3-3-3---3---|
D |-10----------10----------10-----15----------15----------15-----5-------5-------5----3-------3-------3-----|

D |----------------------------------------------------------------------------------------------------------|
A |----------------------------------------------------------------------------------------------------------|
F#|----------------------------------------------------------------------------------------------------------|
D |---3-3-3----3-3-3-------3-3-3----3-3-3--------3-3-3---3-3-3-------3-3-3---3-3-3-------5-5-5---5-5-5---5---|
A |-5-------5--------5-5-5--------5-------5-5----------5-------5-5-5-------5-------5-5-3-------3-------3-----|
D |-------------------------------------------0--------------------------------------------------------------|

D |-----------------------------------------------------------------------------|
A |-----------------------------------------------------------------------------|
F#|-----------------------------------------------------------------------------|
D |-----10-10-10---10-10-10---10------------------------------------------------|
A |---8----------8----------8-------5-5-5---5-5-5---5----3-3-3---3-3-3---3------|
D |-------------------------------5-------5-------5----3-------3-------3--------|

(C'MON)
D |----------------------------------------------------------------------------------------------------------|
A |----12-12-12----12-12-12----12----12-12-12----12-12-12----12----12-12-12----12-12-12----12----------------|
F#|----------------------------------------------------------------------------------------------------------|
D |-12----------12----------12----12----------12----------12----12----------12----------12----12-------------|
A |----------------------------------------------------------------------------------------------------------|
D |----------------------------------------------------------------------------------------------------------|

D |---------------------------------------------------------------------------------------------------------|
A |---------------------------------------------------------------------------------------------------------|
F#|---------------------------------------------------------------------------------------------------------|
D |---------------------------------------------------------------------------------------------------------|
A |----10-10-10----10-10-10----10-----15-15-15----15-15-15----15----5-5-5---5-5-5---5-----------------------|
D |-10----------10----------10-----15----------15----------15-----5-------5-------5----3--------------------|

D |-------------------------------------------------------------------------------------------------|
A |----12-12-12----12-12-12----12----12-12-12----12-12-12----12----12-12-12----12-12-12----12-------|
F#|-------------------------------------------------------------------------------------------------|
D |-12----------12----------12----12----------12----------12----12----------12----------12----12----|
A |-------------------------------------------------------------------------------------------------|
D |-------------------------------------------------------------------------------------------------|

D |---------------------------------------------------------------------------------------------------------|
A |---------------------------------------------------------------------------------------------------------|
F#|---------------------------------------------------------------------------------------------------------|
D |---------------------------------------------------------------------------------------------------------|
A |----10-10-10----10-10-10----10-----15-15-15----15-15-15----15----5-5-5---5-5-5---5----3-3-3---3-3-3---3--|
D |-10----------10----------10-----15----------15----------15-----5-------5-------5----3-------3-------3----|

D |---------------------------------------------------------------------------------------------------------|
A |---------------------------------------------------------------------------------------------------------|
F#|---------------------------------------------------------------------------------------------------------|
D |---3-3-3----3-3-3-------3-3-3----3-3-3--------3-3-3---3-3-3-------3-3-3---3-3-3-------5-5-5---5-5-5---5--|
A |-5-------5--------5-5-5--------5-------5-5----------5-------5-5-5-------5-------5-5-3-------3-------3----|
D |-------------------------------------------0-------------------------------------------------------------|

D |-----------------------------------------------------------------------------|
A |-----------------------------------------------------------------------------|
F#|-----------------------------------------------------------------------------|
D |-----10-10-10---10-10-10---10------------------------------------------------|
A |---8----------8----------8-------5-5-5---5-5-5---5----3-3-3---3-3-3---3------|
D |-------------------------------5-------5-------5----3-------3-------3----0---|

[Verse]
Jeremiah
Looking down
And you know where you're looking on down
Do you know where you go
You're headed on the strings
For the E-X-T-I-N-C-T
Jeremiah
Looking down but you know where you're looking
But you go
Do you know where you go
You're headed on the strings
For the E-X-T-I-N-C-T

D |----------------------------------------------------------------------|
A |----------------------------------------------------------------------|
F#|----------------------------------------------------------------------| 
D |----------------------------------------------------------------------|
A |----------------------------------------------------------------------|
D |-0-(x15)-3-(x15)-5-(x15)-0-(x15)-0-(x15)-3-(x15)-5-(x15)-0-(x15)------|

D |---------------------------------------------------|
A |---------------------------------------------------|
F#|---------------------------------------------------|
D |--------------------------14-------12-------12-----|
A |---------------------------------------------------|
D |-15-17-19-17-15/12--12-12----12-12----12-12----12--|

D |----------------------------------------------------------------------|
A |----------------------------------------------------------------------|
F#|----------------------------------------------------------------------| 
D |----------------------------------------------------------------------|
A |----------------------------------------------------------------------|
D |-0-(x15)-3-(x15)-5-(x15)-0-(x15)-0-(x15)-3-(x15)-5-(x15)-0-(x15)------|

[Solo]
D |----------------------------------------------------------------------------------------------------------|
A |----------------------------------------------------------------------------------------------------------|
F#|----------------------------------------------------------------------------------------------------------|
D |-3-------5---------5-------3---------------------------------------------3-----------7-5-----------------5|
A |---5-------3-----3-------2---------------5-----5-----5---5-----5---------------5---------3-----3-------3--|
D |-----0-(x8)-----0-(x8)-----0-0-----0-0-3--2--0---0-0---0-0---0---0-0---0-0-0-0---0-0---0-0-------0-0------|

D |-----------------------------------------------|
A |-----------------------------------------------|
F#|-----------------------------------------------|
D |------3----------------------------------------|
A |----2---------------5-----5-----5---5-----5----|
D |0-0-----0-0-3--2--0---0-0---0-0---0---0-0---0-0|

[Chorus]
D |----------------------------------------------------------------------|
A |----------------------------------------------------------------------|
F#|-------------------------3-----------------------------7--------------|
D |-----3-3-3-3-3-3-3-----3-------3---------------------7---7------------|
A |-----3-3-3-3-3-3-3---5------------------------------7-----------------|
D |-0-0-3-3-3-3-3-3-3-3-------3-3---3-3-3---7-(8x)---11---------7-(8x)---|

D |---------------------------------------------------|
A |---------------------------------------------------|
F#|---------------------------------------------------|
D |--------------------------14-------12-------12-----|
A |---------------------------------------------------|
D |-15-17-19-17-15/12--12-12----12-12----12-12----12--|

D |----------------------------------------------------------------------|
A |----------------------------------------------------------------------|
F#|----------------------------------------------------------------------| 
D |----------------------------------------------------------------------|
A |----------------------------------------------------------------------|
D |-0-(x15)-3-(x15)-5-(x15)-0-(x15)-0-(x15)-3-(x15)-5-(x15)-0-(x15)------|            
Submit corrections


        The Gospel Of John Hurt  lessons Hard to play? Try these video lessons and learn fast The Gospel Of John Hurt  lessons
        
↑ Back to top | Tablatures and chords for acoustic guitar and electric guitar, ukulele, drums are parodies/interpretations of the original songs. You may use it for private study, scholarship, research or language learning purposes only