» » »

Alt-j - Nara Tabs

Artists:  A B C D E F G H I J K L M N O P Q R S T U V W X Y Z # 

Nara Tabs

(ver. 1) Click to play this song!
Alt-j
 Rating:
2.4/5 (28 votes)

 Nara  lessons Tabs too difficult? Try these video lessons and learn fast
 
                e|------------------------------------------------------------------------------------|
B|------3-----2p0-----------0----0-------0----0----12+-------12+------12+--------7+---|
G|--------------------------------------------------------------------------------7+--|
D|----------------4--0----------------------------------------------------------------|
A|--2------4--------------------------------------------------------------------------|
E|----------------------3------------5------------12+--12+(x2)---12+(x2)---12+(x3)----|

e|------------------------------------------------0---------------12+-----------------|
B|------3-----2p0-----------0----0-------0----0---0-------------12+-7+----------------|
G|------------------------------------------------0-----------------------------------|
D|----------------4--0----------------------------2-----------------------------------|
A|--2------4--------------------------------------2-----------------------------------|
E|----------------------3------------5------------0-----------------------------------|

e|------------------------------------------------------------------------------------|
B|------3-----2p0-----------0----0-------0----0----12+-------12+------12+--------7+---|
G|--------------------------------------------------------------------------------7+--|
D|----------------4--0----------------------------------------------------------------|
A|--2------4--------------------------------------------------------------------------|
E|----------------------3------------5------------12+--12+(x2)---12+(x2)---12+(x3)----|

e|----------------------------------------------------------------------------12+-----|
B|------3-----2p0-----------8p7--------0--------0---10h12--10h12--10h12-----7+--------|
G|-------------------------------7--9-----7--9-----------------------------------7+---|
D|---------------4--0-----------------------------------------------------------------|
A|--2------4--------------------------------------------------------------------------|
E|----------------------3-------------------------------------------------------------|            
Submit corrections


        Nara  lessons Hard to play? Try these video lessons and learn fast Nara  lessons
        
↑ Back to top | Tablatures and chords for acoustic guitar and electric guitar, ukulele, drums are parodies/interpretations of the original songs. You may use it for private study, scholarship, research or language learning purposes only