» » »

Alt-j - Last Year Tabs

Artists:  A B C D E F G H I J K L M N O P Q R S T U V W X Y Z # 

Last Year Tabs

(ver. 1) Click to play this song!
Alt-j
 Rating:
4.3/5 (19 votes)

 Last Year  lessons Tabs too difficult? Try these video lessons and learn fast
 
                [Verse 1]

e|---------------------------------------------|---------------------------------------------|
B|---------------------------------------------|---------------------------------------------|
G|---------------------------------------------|---------------------------------------------|
D|---------------------------------------------|------4----------4----------4-----4--2--0----|
A|------5----------5----------5----------7-----|-------------------------------------------4-|
D|-5-------5--5-------5--5-------5--7-------7--|-0-------0--0-------0--0-------0-------------|

e|---------------------------------------------|---------------------------------------------|
B|---------------------------------------------|---------------------------------------------|
G|---------------------------------------------|---------------------------------------------|
D|---------------------------------------------|---------------------------------------------|
A|------5----------5----------4----------2-----|------0----------0----------0----------7-----|
D|-5-------5--5-------5--4-------4--2-------2--|-0-------0--0-------0--0-------0--7-------7--|


   6/4 measure (6 beats here)
e|--------------------------------------------------------|---------------------------------------|
B|--------------------------------------------------------|---------------------------------------|
G|--------------------------------------------------------|---------------------------------------|
D|--------------------------------------------------------|------4--------4--------4---4--2--0----|
A|------5--------5--------5--------5--------5--------7----|-------------------------------------4-|
D|-5------5-5------5-5------5-5------5-5------5-7------7--|-0------0-0------0-0------0------------|

                                                 2/4 measure 
e|---------------------------------------------|-----------------------|
B|---------------------------------------------|-----------------------|
G|---------------------------------------------|-----------------------|
D|---------------------------------------------|-----------------------|
A|------5----------4----------2----------2-----|------0----------7-----|
D|-5-------5--4-------4--2-------2--2-------2--|-0-------0--7-------7--|

e|---------------------------------------------|
B|---------------------------------------------|
G|---------------------------------------------|
D|---------------------------------------------|
A|------5----------5----------5----------5-----|
D|-5-------5--5-------5--5-------5--5-------5--|



[Verse Part 2]

   (1:21)
e|---------------------------------------------|---------------------------------------------|
B|---------------------------------------------|---------------------------------------------|
G|---------------------------------------------|---------------------------------------------|
D|---------------------------------------------|------4----------4----------4-----4--2--0----|
A|------5----------5----------5----------7-----|-------------------------------------------4-|
D|-5-------5--5-------5--5-------5--7-------7--|-0-------0--0-------0--0-------0-------------|

e|---------------------------------------------|---------------------------------------------|
B|---------------------------------------------|---------------------------------------------|
G|---------------------------------------------|---------------------------------------------|
D|---------------------------------------------|-----------------2-----------------------x---|
A|------5----------4----------2----------2-----|------0-----0-------0--------5-----------x---|
D|-5-------5--4-------4--2-------2--2-------2--|-0-------0-------------5--------5--5-----x---|

e|---------------------------------------------|---------------------------------------------|
B|---------------------------------------------|---------------------------------------------|
G|---------------------------------------------|---------------------------------------------|
D|---------------------------------------------|------4----------4----------4-----4--2--0----|
A|------5----------5----------5----------7-----|-------------------------------------------4-|
D|-5-------5--5-------5--5-------5--7-------7--|-0-------0--0-------0--0-------0-------------|

e|---------------------------------------------|---------------------------------------------|
B|---------------------------------------------|---------------------------------------------|
G|---------------------------------------------|---------------------------------------------|
D|---------------------------------------------|---------------------------------------------|
A|------5----------5----------4----------2-----|------0----------0----------0----------0-----|
D|-5-------5--5-------5--4-------4--2-------2--|-0-------0--0-------0--0-------0--0-------0--|


(2:31)
e|---------------------------------------------|---------------------------------------------|
B|---------------------------------------------|---------------------------------------------|
G|---------------------------------------------|---------------------------------------------|
D|---------------------------------------------|---------------------------------------------|
A|------0----------7----------5----------5-----|------5----------5----------5----------7-----|
D|-0-------0--7-------7--5-------5--5-------5--|-5-------5--5-------5--5-------5--7-------7--|

e|---------------------------------------------|---------------------------------------------|
B|---------------------------------------------|---------------------------------------------|
G|---------------------------------------------|---------------------------------------------|
D|------4----------4----------4-----4--2--0----|---------------------------------------------|
A|-------------------------------------------4-|------5----------4----------2----------2-----|
D|-0-------0--0-------0--0-------0-------------|-5-------5--4-------4--2-------2--2-------2--|

e|--------------------------------------|
B|--------------------------------------|
G|--------------------------------------|
D|--------------------------0-----------|
A|------0----------7--------------------|
D|-0-------0--7-------7--5--------------|



[Tempo Change]

(3:15)  
e|----------5----------------7--7--7--|----------------------5----5--5--5---|
B|----------7--7--7--7-------7--7--7--|-----7----7--7--7-----5----5--5--5---|
G|-----7----7--7--7-----7----7--7--7--|-----7----7--7--7-----6----6--6--6---|
D|--7--7----7--7--7--9-------9--9--9--|--0--0----0--0--0--7-------7--7--7---|
A|------------------------------------|-------------------------------------|
D|------------------------------------|-------------------------------------|

   6/4 measure
e|----5----5--5--5-----5----5--5--5-----5---------------|
B|----5----5--5--5-----5----5--5--5-----5-------7--7----|
G|----6----6--6--6-----6----6--6--6-----6-------7--7----|
D|-7-------7--7--7--7-------7--7--7--7-------7--0--0----|
A|------------------------------------------------------|
D|------------------------------------------------------|



   play this part below 3x

e|-------------------7--7----7--7--7--|----------------------5----5--5--5---|
B|----------7--7--7--7--7----7--7--7--|-----7----7--7--7-----5----5--5--5---|
G|-----7----7--7--7--7--7----7--7--7--|-----7----7--7--7-----6----6--6--6---|
D|--4--4----4--4--4--4-------4--4--4--|--0--0----0--0--0--7-------7--7--7---|
A|------------------------------------|-------------------------------------|
D|------------------------------------|-------------------------------------|

   6/4 measure
e|----5----5--5--5-----5----5--5--5-----5---------------|
B|----5----5--5--5-----5----5--5--5-----5-------7--7----|
G|----6----6--6--6-----6----6--6--6-----6-------7--7----|
D|-7-------7--7--7--7-------7--7--7--7-------7--0--0----|
A|------------------------------------------------------|
D|------------------------------------------------------|



[Chorus]

(3:54) play 3x


e|------------------------------------|------------------------------------|
B|----8----8--8--8-----10---10-10-10--|---------------------8----8--8--8---|
G|----7----7--7--7-----9----9--9--9---|----7----7--7--7-----7----7--7--7---|
D|----5----5--5--5-----7----7--7--7---|----7----7--7--7-----5----5--5--5---|
A|----5----5--5--5-----7----7--7--7---|----5----5--5--5-----5----5--5--5---|
D|-5----------------7-----------------|-0----------------5-----------------|

   6/4 measure
e|----------------------------------------------------|
B|----8----8--8--8-----8----8--8--8-----8----8--8--8--|
G|----7----7--7--7-----7----7--7--7-----7----7--7--7--|
D|----5----5--5--5-----5----5--5--5-----5----5--5--5--|
A|----5----5--5--5-----5----5--5--5-----5----5--5--5--|
D|-5----------------5----------------5----------------|



[Chorus Ending]

e|------------------------------------|------------------------------------|
B|---------------------10---10-10-10--|------------------------------------|
G|----7----7--7--7-----9----9--9--9---|----7----7--7--7-----7----7--7--7---|
D|----7----7--7--7-----7----7--7--7---|----7----7--7--7-----7----7--7--7---|
A|----5----5--5--5-----7----7--7--7---|----5----5--5--5-----5----5--5--5---|
D|-0----------------7-----------------|-0----------------0-----------------|

e|------------------------------------|
B|------------------------------------|
G|----7----7--7--7-----7----7--7--7---|
D|----7----7--7--7-----7----7--7--7---|
A|----5----5--5--5-----5----5--5--5---|
E|-0----------------0-----------------|



[Instrumental]

play this entire part 4x

e|------------------------------------|------------------------------------|
B|----8----8--8--8-----10---10-10-10--|---------------------8----8--8--8---|
G|----7----7--7--7-----9----9--9--9---|----7----7--7--7-----7----7--7--7---|
D|----5----5--5--5-----7----7--7--7---|----7----7--7--7-----5----5--5--5---|
A|----5----5--5--5-----7----7--7--7---|----5----5--5--5-----5----5--5--5---|
D|-5----------------7-----------------|-0----------------5-----------------|

   6/4 measure
e|----------------------------------------------------|
B|----8----8--8--8-----8----8--8--8-----8----8--8--8--|
G|----7----7--7--7-----7----7--7--7-----7----7--7--7--|
D|----5----5--5--5-----5----5--5--5-----5----5--5--5--|
A|----5----5--5--5-----5----5--5--5-----5----5--5--5--|
D|-5----------------5----------------5----------------|



[Final Chorus]

play this part 3x

e|------------------------------------|------------------------------------|
B|----8----8--8--8-----10---10-10-10--|---------------------8----8--8--8---|
G|----7----7--7--7-----9----9--9--9---|----7----7--7--7-----7----7--7--7---|
D|----5----5--5--5-----7----7--7--7---|----7----7--7--7-----5----5--5--5---|
A|----5----5--5--5-----7----7--7--7---|----5----5--5--5-----5----5--5--5---|
D|-5----------------7-----------------|-0----------------5-----------------|

   6/4 measure
e|----------------------------------------------------|
B|----8----8--8--8-----8----8--8--8-----8----8--8--8--|
G|----7----7--7--7-----7----7--7--7-----7----7--7--7--|
D|----5----5--5--5-----5----5--5--5-----5----5--5--5--|
A|----5----5--5--5-----5----5--5--5-----5----5--5--5--|
D|-5----------------5----------------5----------------|



[Outro]

e|------------------------------------|------------------------------------|
B|---------------------10---10-10-10--|------------------------------------|
G|----7----7--7--7-----9----9--9--9---|----7----7--7--7-----7----7--7--7---|
D|----7----7--7--7-----7----7--7--7---|----7----7--7--7-----7----7--7--7---|
A|----5----5--5--5-----7----7--7--7---|----5----5--5--5-----5----5--5--5---|
D|-0----------------7-----------------|-0----------------0-----------------|


e|-----------------------------------|-------------------------------------|
B|-----------------------------------|----------------10-------------------|
G|----7----7--7--7-------------------|-7--------------9------------7-------|
D|----7----7--7--7-------------------|-7--------------7------------7-------|
A|----5----5--5--5-------------------|-5--------------7------------5-------|
E|-0---------------------------------|-0--------------7------------0-------|            
Submit corrections


        Last Year  lessons Hard to play? Try these video lessons and learn fast Last Year  lessons
        
↑ Back to top | Tablatures and chords for acoustic guitar and electric guitar, ukulele, drums are parodies/interpretations of the original songs. You may use it for private study, scholarship, research or language learning purposes only