» » »

Alt-j - Intro Tabs

Artists:  A B C D E F G H I J K L M N O P Q R S T U V W X Y Z # 

Intro Tabs

(ver. 1) Click to play this song!
Alt-j
 Rating:
5/5 (1 vote)

 Intro  lessons Tabs too difficult? Try these video lessons and learn fast
 
                Minute 0:13 - 0:26

   G1*
e|-----7----------------------7--------------------------------|
B|-7h10-------------------7h10--------------------7-5-3-2-3--0-|
G|------------------------------------------------7-6-4-2-4--4-|     G1 lets last notes 
D|-------------------------------------------------------------|     on G and B strings
A|-------------------------------------------------------------|     ring out
E|-------------------------------------------------------------|
   G2*
e|-----------------------------------------------|
B|---------12--------12--------------------12----|
G|-------11--11---11------------11-11---11-------|
D|-----------------------------------------------|
A|-----------------------------------------------|
E|-----------------------------------------------|

Minute 0:27 - 1:07

   G1*
e|---------------------------------------------------------------------------|
B|-0-------------------------------------------------------------------------|
G|---------------------------------------------------------------------------|
D|---------------------------------------------------------------------------|
A|---------------------------------------------------------------------------|
E|---------------------------------------------------------------------------|
   G2*
e|--------------------------------------------------------------------------------------------|
B|-12-------12-------12----12-------12-------12----12-------12-------12----12------12---------|
G|----11-11----11-11----11----11-11----11-11----11----11-11----11-11----11----11-11---11-11---|
D|--------------------------------------------------------------------------------------------|
A|--------------------------------------------------------------------------------------------|
E|--------------------------------------------------------------------------------------------|

   G1*
e|-------------7-10-7-----------7-10-7-----------7-10-7-----------7-10-7---------|
B|---------7h10-------------7h10-----------7h10-------------7h10-----------------|
G|-------------------------------------------------------------------------------|
D|-------------------------------------------------------------------------------|
A|-------------------------------------------------------------------------------|
E|-------------------------------------------------------------------------------|
   G2*
e|------------------------------------------------------------------------------|
B|-12----12-------12-------12----12-------12-------12----12------12-------12----|
G|----11----11-11----11-11----11----11-11----11-11----11----11-11---11-11----11-|
D|------------------------------------------------------------------------------|
A|------------------------------------------------------------------------------|
E|------------------------------------------------------------------------------|

   G1*
e|------7-10-7--------------7-10-7--------------7-10-7--------------7-10-7-----|
B|--7h10----------------7h10----------------7h10----------------7h10-----------|
G|-----------------------------------------------------------------------------|
D|-----------------------------------------------------------------------------|
A|-----------------------------------------------------------------------------|
E|-----------------------------------------------------------------------------|
   G2*
e|---------------------------------------------------------------------------------------------------|
B|-14-------14-------14----14-------14-------14-----14-------14-------14----14-------14-------14-----|
G|----11-11----11-11----11----11-11----11-11-----11----11-11----11-11----11----11-11----11-11----11--|
D|---------------------------------------------------------------------------------------------------|
A|---------------------------------------------------------------------------------------------------|
E|---------------------------------------------------------------------------------------------------|

   G1*
e|------7-9-7---------------7-9-7---------------7-9-7---------------7-9-7--10-10-10-10-10-10-10-9-9-9-----|
B|--7h10----------------7h10----------------7h10----------------7h10--------------------------------------|
G|--------------------------------------------------------------------------------------------------------|
D|--------------------------------------------------------------------------------------------------------|
A|--------------------------------------------------------------------------------------------------------|
E|--------------------------------------------------------------------------------------------------------|
   G2*
e|--------------------------------------------------------------------------------------------------|
B|--12-------12-------12----12-------12-------12----12------12-------12----12-------12-------12-----|
G|-----11-11----11-11----11----11-11----11-11----11----11-11---11-11----11----11-11----11-11----11--|
D|--------------------------------------------------------------------------------------------------|
A|--------------------------------------------------------------------------------------------------|
E|--------------------------------------------------------------------------------------------------|


   G1*
e|------7-10-7--------------7-10-7--------------7-10-7--------------7-10-7-----|
B|--7h10----------------7h10----------------7h10----------------7h10-----------|
G|-----------------------------------------------------------------------------|
D|-----------------------------------------------------------------------------|
A|-----------------------------------------------------------------------------|
E|-----------------------------------------------------------------------------|
   G2*
e|---------------------------------------------------------------------------------------------------|
B|-14-------14-------14----14-------14-------14-----14-------14-------14----14-------14-------14-----|
G|----11-11----11-11----11----11-11----11-11-----11----11-11----11-11----11----11-11----11-11----11--|
D|---------------------------------------------------------------------------------------------------|
A|---------------------------------------------------------------------------------------------------|
E|---------------------------------------------------------------------------------------------------|


   G1*
e|------7-9-7---------------7-9-7---------------7-9-7---------------7-9-7--7-7-7-7-7--|
B|--7h10----------------7h10----------------7h10----------------7h10------------------|
G|------------------------------------------------------------------------------------|
D|------------------------------------------------------------------------------------|
A|------------------------------------------------------------------------------------|
E|------------------------------------------------------------------------------------|
   G2*
e|-------------------------------------------------------------------------------------|
B|--12-------12-------12----12-------12-------12----12------12-------12----12-------12-|
G|-----11-11----11-11----11----11-11----11-11----11----11-11---11-11----11----11-11----|
D|-------------------------------------------------------------------------------------|
A|-------------------------------------------------------------------------------------|
E|-------------------------------------------------------------------------------------|

Minute 1:13 - 1:47

  G1
e|-----------------|
B|-9/10---9---7----|
G|-9/11---9---7----|
D|-----------------|   Play before G2 begins playing on the 19th fret
A|-----------------|
E|-----------------|


   G2
e|-19-19-19-19-19-19-19-19-17-17-17-------------------------------------------------------------------------|
B|------------------------------------17-17-17-17-17-17-17-17-15-15-15--------------------------------------|
G|-----------------------------------------------------------------------14-14-14-14-14-14-14-14-16-16-16---|
D|----------------------------------------------------------------------------------------------------------|
A|----------------------------------------------------------------------------------------------------------|
E|----------------------------------------------------------------------------------------------------------|


   G2
e|-19-19-19-19-19-19-19-19-17-17-17-----------------------------------------------------------------------|
B|------------------------------------17-17-17-17-17-17-17-17-15-15-15------------------------------------|
G|-----------------------------------------------------------------------14-14-14-14-14-14-14-14-16-16-16-|
D|--------------------------------------------------------------------------------------------------------|
A|--------------------------------------------------------------------------------------------------------|
E|--------------------------------------------------------------------------------------------------------|

   G2
e|----------------------------|
B|------17---17-------17------|
G|-16-16---16---16-16----16\--|
D|----------------------------|
A|----------------------------|
E|----------------------------|

Minute 1:50 - end

   G1*
e|-----------------------------------------------------------------------------------------------|
B|-----------------------------------------------------------------------------------------------|
G|-----------------------------------------------------------------------------------------------|
D|-----------------------------------------------------------------------------------------------|  X2
A|---------------5--------------------------7-9---------------5------------------5-5-5-7-7-7-5-5-|
E|-7-7-7-7-7-7-7----5-5-5-5-5-5-5-5-7-7-7-7------7-7-7-7-7-7-7---5-5-5-5-5-5-5-5-----------------|
   G2*
e|-----------------------------------------|
B|-----------------------------------------|
G|-----------------------------------------|
D|-14-14-14-14-14-14-7-7-9-9-9-9-9-9-9-9-9-|    X4
A|-----------------------------------------|
E|-----------------------------------------|

   G1*
e|-19-19-19-19-19-19-19-19-17-17-17-------------------------------------------------------------------------|
B|------------------------------------17-17-17-17-17-17-17-17-15-15-15--------------------------------------|
G|-----------------------------------------------------------------------14-14-14-14-14-14-14-14-16-16-16---|
D|----------------------------------------------------------------------------------------------------------|
A|----------------------------------------------------------------------------------------------------------|
E|----------------------------------------------------------------------------------------------------------|
   G2*
e|------------------------------------------------|
B|------------------------------------------------|
G|-----7\6-6-----6---6/7----9\7-6-----7---7-------|
D|-9--9-----7--7---7----9--9-----7--7---7---7-9---|   X4
A|------------------------------------------------|
E|------------------------------------------------|            
Submit corrections


        Intro  lessons Hard to play? Try these video lessons and learn fast Intro  lessons
        
↑ Back to top | Tablatures and chords for acoustic guitar and electric guitar, ukulele, drums are parodies/interpretations of the original songs. You may use it for private study, scholarship, research or language learning purposes only