» » »

Alt-j - In Cold Blood Tabs

Artists:  A B C D E F G H I J K L M N O P Q R S T U V W X Y Z # 

In Cold Blood Tabs

(ver. 1) Click to play this song!
Alt-j
 Rating:
4.3/5 (9 votes)

 In Cold Blood  lessons Tabs too difficult? Try these video lessons and learn fast
 
                

[Verse Riff 1]

   play with slight mutes throughout
e|----------------|----------------|
B|----------------|----------------|
G|----------------|----------------|  play 4x
D|----------------|----------------|
A|-----------2----|----------------|
D|-4--4---------0-|-2--2-----------|

e|-------------------|----------------------|--------------------|-----------------|-----------------|
B|-------------------|----------------------|--------------------|-----------------|-----------------|
G|-------------------|----------------------|--------------------|-----------------|-----------------|
D|-------------------|----------------------|----------------2/4-|-----------------|-----------------|
A|-2-----------5-----|----------------2-----|--------------------|-2-2-2-2-2-2-2-2-|-2-2-2-2-2-2-2---|
D|----------------0--|-5-----5--4--------0--|-2-----2--0---------|-----------------|---------------0-|


   (0:22) - Play Verse Riff 1 again


[PreChorus]

   Brass part 
e|--------------------|-----------------------|
B|--------------------|-----------------------|
G|--------------------|-----------------------|
D|--------------------|-----------------------|
A|--------------------|-----------------------|
D|-9--------7---------|-5---------5--4--5--7--|

e|--------------------|-----------------------------------|
B|--------------------|-----------------------------------|
G|--------------------|-----------------------------------|
D|--------------------|-----------------------------------|
A|--------------------|-----------5-5-5-5-5-5-4-4-4-4-4-4-|
D|-9--------7---------|-5---------------------------------|


e|--------------------|-----------------------|--------------------|-----------------------|
B|--------------------|-----------------------|--------------------|-----------------------|
G|--------------------|-----------------------|--------------------|-----------------------|
D|--------------------|-----------------------|--------------------|-----------------------|
A|--------------------|-----------5-----4-----|--------------------|-----------------------|
D|-9--------7---------|-5---------------------|-9--------7---------|-5---------------------|



[Chorus]

e|--------------------|---------------------------|
B|--------------------|---------------------------|
G|--------------------|---------------------------|
D|--------------------|---------------------------|
A|--------------------|-----------5-4--5-4--5\-0--|
D|-9--------4----4----|-0-------------------------|

e|--------------------|---------------------------|
B|--------------------|---------------------------|
G|--------------------|---------------------------|
D|--------------------|---------------------------|
A|--------------------|-----------7--7--7--7--9---|
D|-9--------4----4----|-0-------------------------|

e|-------------------------|-------------------------|-------------------------|------------------|
B|-------------------------|-------------------------|-------------------------|------------------|
G|-------------------------|-------------------------|-------------------------|------------------|
D|-------------------------|-------------------------|-------------------------|------------------|
A|-------------------------|-------------------------|-------------------------|------------------|
D|-2--2--2--2--2--2--2--2--|-2--2--2--2--2--2--2--2--|-2--2--2--2--2--2--2--2--|-2----------------|



[Verse 2]

   play with slight mutes throughout
e|----------------|----------------|
B|----------------|----------------|
G|----------------|----------------|  play 3x
D|----------------|----------------|
A|-----------2----|----------------|
D|-4--4---------0-|-2--2-----------|

e|----------------|----------------|
B|----------------|----------------|
G|----------------|----------------|
D|----------------|----------------|
A|----------------|----------------|
D|-4--4-----------|----------------|

e|-------------------|----------------------|--------------------|-----------------|-----------------|
B|-------------------|----------------------|--------------------|-----------------|-----------------|
G|-------------------|----------------------|--------------------|-----------------|-----------------|
D|-------------------|----------------------|----------------2/4-|-----------------|-----------------|
A|-2-----------5-----|----------------2-----|--------------------|-2-2-2-2-2-2-2-2-|-2-2-2-2-2-2-2---|
D|----------------0--|-5-----5--4--------0--|-2-----2--0---------|-----------------|---------------0-|



[Chorus]

e|--------------------|---------------------------|
B|--------------------|---------------------------|
G|--------------------|---------------------------|
D|--------------------|---------------------------|
A|--------------------|-----------5-4--5-4--5\-0--|
D|-9--------4----4----|-0-------------------------|

e|--------------------|---------------------------|
B|--------------------|---------------------------|
G|--------------------|---------------------------|
D|--------------------|---------------------------|
A|--------------------|-----------7--7--7--7--9---|
D|-9--------4----4----|-0-------------------------|

e|-------------------------|-------------------------|-------------------------|------------------|
B|-------------------------|-------------------------|-------------------------|------------------|
G|-------------------------|-------------------------|-------------------------|------------------|
D|-------------------------|-------------------------|-------------------------|------------------|
A|-------------------------|-------------------------|-------------------------|------------------|
D|-2--2--2--2--2--2--2--2--|-2--2--2--2--2--2--2--2--|-2--2--2--2--2--2--2--2--|-2----------------|



[Bridge]

e|--------------------|-----------------------------|
B|--------------------|-----------------------------|
G|--------------------|-----------------------------|
D|--------------------|-----------------------------|  play 4x
A|--------------------|-----------5-4--5-4--5\---0--|
D|-9--------4----4----|-0---------------------------|


[Outro]

e|--------------------|-------------------------------|
B|--------------------|-------------------------------|
G|--------------------|-------------------------------| play 3x
D|--------------------|-----------3--2--3--2--3-------|
A|-5------------------|----------------------------3--|
D|----------7----7----|-3-----------------------------|

e|--------------------|----------------------------------|
B|--------------------|--------------------------6-------|
G|--------------------|-----------------------------7----|
D|--------------------|-----------5--5--5--5--7----------|
A|-5------------------|----------------------------------|
D|----------7----7----|-3--------------------------------|

e|-------------------------|-------------------------|-------------------------|------------------|
B|-------------------------|-------------------------|-------------------------|------------------|
G|-------------------------|-------------------------|-------------------------|------------------|
D|-------------------------|-------------------------|-------------------------|------------------|
A|-------------------------|-------------------------|-------------------------|------------------|
D|-2--2--2--2--2--2--2--2--|-2--2--2--2--2--2--2--2--|-2--2--2--2--2--2--2--2--|-2----------------|
            
Submit corrections


        In Cold Blood  lessons Hard to play? Try these video lessons and learn fast In Cold Blood  lessons
        
↑ Back to top | Tablatures and chords for acoustic guitar and electric guitar, ukulele, drums are parodies/interpretations of the original songs. You may use it for private study, scholarship, research or language learning purposes only