» » »

Alt-j - Hunger Of The Pine Tabs

Artists:  A B C D E F G H I J K L M N O P Q R S T U V W X Y Z # 

Hunger Of The Pine Tabs

(ver. 1) Click to play this song!
Alt-j
 Rating:
4.3/5 (13 votes)

 Hunger Of The Pine  lessons Tabs too difficult? Try these video lessons and learn fast
 
                [Intro]
D |---------------------------------------------------------------------------|
A |----3-------3-------3-------3-------2-------2-------2-------2--------------|
F#|---------------------------------------------------------------------------|
D |-----0-------0-------0-------0-------2-------2-------2-------2-------------|
A |---------------------------------------------------------------------------|
D |--3-------3-------3-------3-------2--------2-------2-------2---------------|

D |---------------------------------------------------------------------------|
A |----0-------0---10-12------0-------0-------0---10-12-----0-----------------|
F#|---------------------------------------------------------------------------|
D |-----0-------0--------------0-------0-------0-------------0----------------|
A |---------------------------------------------------------------------------|
D |--0-------0--------------0--------0-------0-------------0------------------|

D |---------------------------------------------------------------------------|
A |----3-------3-------3-----5----2-------2-------2-------2-------------------|
F#|---------------------------------------------------------------------------|
D |-----0-------0-------0-----------2-------2-------2-------2-----------------|
A |---------------------------------------------------------------------------|
D |--3-------3-------3-----------2-------2-------2-------2--------------------|

D |-----------------------------------------------------------------------------|
A |----0-------0---10-12------0-------0-------0---17-15-------------------------|
F#|-----------------------------------------------------------------------------|
D |-----0-------0--------------0-------0-------0--------------------------------|
A |-----------------------------------------------------------------------------|
D |--0-------0--------------0--------0-------0----------------------------------|            
Submit corrections


        Hunger Of The Pine  lessons Hard to play? Try these video lessons and learn fast Hunger Of The Pine  lessons
        
↑ Back to top | Tablatures and chords for acoustic guitar and electric guitar, ukulele, drums are parodies/interpretations of the original songs. You may use it for private study, scholarship, research or language learning purposes only