» » »

Alt-j - Guitar Tabs

Artists:  A B C D E F G H I J K L M N O P Q R S T U V W X Y Z # 

Guitar Tabs

(ver. 1) Click to play this song!
Alt-j
 Rating:
4/5 (4 votes)

 Guitar  lessons Tabs too difficult? Try these video lessons and learn fast
 
                Tuning is Open D: D A D F# A D

D|-----------0-------2-------0-----|
A|---0--7/-9---0-------0-------0---|
F#|---0----------0-------0-------0-|
D|---------------------------------|
A|---------------------------------|
D|0----------------4-------2-------|

D|-----------0-------2-------0-----|
A|---0--7/-9---0-------0-------0---|
F#|---0----------0-------0-------0-|
D|---------------------------------|
A|---------------------------------|
D|0----------------4-------2-------|

D|-----------0-------2-------0-----|
A|---0--10h9---0-------0-------0---|
F#|---0----------0-------0-------0-|
D|---------------------------------|
A|---------------------------------|
D|0----------------4-------2-------|

D|-----------0-------2-------0-----|
A|---0--7/-9---0-------0-------0---|
F#|---0----------0-------0-------0-|
D|---------------------------------|
A|---------------------------------|
D|0----------------4-------2-------|

D|------12h11-0-------0-------0----|
A|--0-----------0-------0-------0--|
F#|---0-----------0-------0-------0|
D|---------------------------------|
A|0-------------------------0------|
D|------------------9--------------|

D|------12h11-0-------0-------0----|
A|--0-----------0-------0-------0--|
F#|---0-----------0-------0-------0|
D|---------------------------------|
A|0-------------------------0------|
D|------------------9--------------|

D|--0--------0-------0-----0---------0-----0-------|
A|----0--------0-------0-----0---------0-----0-----|
F#|----0---------0-------0---------------0---------|
D|0-----2/-4---------------------------------------|
A|-----------------------------0h2-------------0h2-|
D|-----------------5---------------2---------------|

D|-----------0-------2-------0-----|
A|---0--7/-9---0-------0-------0---|
F#|---0----------0-------0-------0-|
D|---------------------------------|
A|---------------------------------|
D|0----------------4-------2-------|

D|-----------0-------2-------0-----|
A|---0--7/-9---0-------0-------0---|
F#|---0----------0-------0-------0-|
D|---------------------------------|
A|---------------------------------|
D|0----------------4-------2-------|

D|-----------0-------2-------0-----|
A|---0--10h9---0-------0-------0---|
F#|---0----------0-------0-------0-|
D|---------------------------------|
A|---------------------------------|
D|0----------------4-------2-------|

D|-----------0-------2-------0-----|
A|---0--7/-9---0-------0-------0---|
F#|---0----------0-------0-------0-|
D|---------------------------------|
A|---------------------------------|
D|0----------------4-------2-------|

D|------12h11-0-------0-------0----|
A|--0-----------0-------0-------0--|
F#|---0-----------0-------0-------0|
D|---------------------------------|
A|0-------------------------0------|
D|------------------9--------------|

D|------12h11-0-------0-------0----|
A|--0-----------0-------0-------0--|
F#|---0-----------0-------0-------0|
D|---------------------------------|
A|0-------------------------0------|
D|------------------9--------------|

D|--0--------0-------0-----0---------0-----0-----------|
A|----0--------0-------0-----0---------0-----0---------|
F#|----0---------0-------0---------------0-------------|
D|0-----2/-4-------------------------------------------|
A|-----------------5-----------0h2-------------0h2/5---|
D|---------------------------------2-----------------0-|            
Submit corrections


        Guitar  lessons Hard to play? Try these video lessons and learn fast Guitar  lessons
        
↑ Back to top | Tablatures and chords for acoustic guitar and electric guitar, ukulele, drums are parodies/interpretations of the original songs. You may use it for private study, scholarship, research or language learning purposes only