» » »

Alt-j - Every Other Freckle Tabs

Artists:  A B C D E F G H I J K L M N O P Q R S T U V W X Y Z # 

Every Other Freckle Tabs

(ver. 1) Click to play this song!
Alt-j
 Rating:
4/5 (4 votes)

 Every Other Freckle  lessons Tabs too difficult? Try these video lessons and learn fast
 
                Tuning: DADGBE

0:00 - 0:13
                   [at 0:07, strum]
e|-2---------------------0----------------|
B|-3---------------------1----------------|
G|-2---------------------0----------------|
D|-0------(LET RING)-----2-----(LET RING)-|
A|-0---------------------3----------------|
D|-0--------------------------------------|

0:14 - 0:40

e|---------------------5---------------------------------------5-----5-----------------------------------------|
B|-----------------------5------------------------------------5-----5------------------------------------------|
G|-------------------------6---------------------------------6-----6--------------------------------------/4---|
D|---------------------------7----7-7-7-7-------------------7-----7---------------------------------------/5---|
A|-----------------------------7--7-7-7-7-----------------------------------------------------------------/5--0|
D|-2----x--2-0----x---------------7-7-7-7-2----x--2-0----x----------------------2----x--2-0----x--0-7----x-----|

e|------------------------------------7-----5--------------|
B|-----------------------------------5-----5---------------|
G|----------------------------------6-----6-----(LET RING)-|
D|---------------------------------7-----7-----------------|
A|-2-------------------------------------------------------|
D|---2----x--2-0----x--0-7-(QUIET)-------------------------|

0:41 - 0:53
[OPEN FOR INTERPRETATION]:
     Its pretty much impossible to hear the guitar here so
     I did the best I could to transcribe it.

e|-10---------------------------------------10---------------------------------------10------------------------|
B|----8-10-12-8-10-12-8-10-12-8-10-12-8--------8-10-12-8-10-12-8-10-12-8-10-12-8--------8-10-12-8-10-12-8-10-12|
G|--------------------------------------9-7--------------------------------------9-7---------------------------|
D|-------------------------------------------------------------------------------------------------------------|
A|-------------------------------------------------------------------------------------------------------------|
D|-------------------------------------------------------------------------------------------------------------|

e|--------------10------------10-----------------|
B|8-10-12-8-----------8-10-------12--(DRUM BEAT)-|
G|----------9-7------------------------("HEY!)---|
D|-----------------------------------------------|
A|-----------------------------------------------|
D|----------------------------------------0------|

0:54 - 1:35

e|-------------------------------------------------------------------------------------------------------------|
B|-------------------------------------------------------------------------------------------------------------|
G|-------------------------------------------------------------------------------------------------------------|
D|-2-2-2-2-2-2-2-2-0-0-0-0-0-0-0-0-7-7-7-7-7-7-7-7-7-7-7-7-0-0-0-0-2-2-2-2-2-2-2-2-0-0-0-0-0-0-0-0-7-7-7-7-7---|
A|-2-2-2-2-2-2-2-2-0-0-0-0-0-0-0-0-7-7-7-7-7-7-7-7-7-7-7-7-0-0-0-0-2-2-2-2-2-2-2-2-0-0-0-0-0-0-0-0-7-7-7-7-7---|
D|-2-2-2-2-2-2-2-2-0-0-0-0-0-0-0-0-7-7-7-7-7-7-7-7-7-7-7-7-0-0-0-0-2-2-2-2-2-2-2-2-0-0-0-0-0-0-0-0-7-7-7-7-7---|

e|-------------------------------------------------------------------------------------------------------------|
B|-------------------------------------------------------------------------------------------------------------|
G|----------------------------------------------------------/5-------------------------------------------------|
D|----------2-2-2-2-2-2-2-2-0-0-0-0-0-0-0-0-7-7-7-7-7-7-7-7-/5----------2-2-2-2-2-2-2-2-0-0-0-0-0-0-0-0-7-7-7-7|
A|----------2-2-2-2-2-2-2-2-0-0-0-0-0-0-0-0-7-7-7-7-7-7-7-7-/4----0--2--2-2-2-2-2-2-2-2-0-0-0-0-0-0-0-0-7-7-7-7|
D|----0-----2-2-2-2-2-2-2-2-0-0-0-0-0-0-0-0-7-7-7-7-7-7-7-7-------------2-2-2-2-2-2-2-2-0-0-0-0-0-0-0-0-7-7-7-7|

e|-------------------------------------------------------------------------------------------------------------|
B|-------------------------------------------------------------------------------------------------------------|
G|-------------------------------------------------------------------------------------------------------------|
D|7-7-7-----0----2-2-2-2-2-2-2-2-0-0-0-0-0-0-0-0-7-7-7-7-7-7-7-7-7-7-7-7-0-0-0-0-2-2-2-2-2-2-2-2-0-0-0-0-0-0-0-|
A|7-7-7-----0----2-2-2-2-2-2-2-2-0-0-0-0-0-0-0-0-7-7-7-7-7-7-7-7-7-7-7-7-0-0-0-0-2-2-2-2-2-2-2-2-0-0-0-0-0-0-0-|
D|7-7-7-----0----2-2-2-2-2-2-2-2-0-0-0-0-0-0-0-0-7-7-7-7-7-7-7-7-7-7-7-7-0-0-0-0-2-2-2-2-2-2-2-2-0-0-0-0-0-0-0-|

e|----------------|
B|----------------|
G|----------------|
D|0-7-------------|
A|0-7---(LET RING)|
D|0-7-------------|

1:36 - 2:00

e|---------------------5---------------------------------------------------------------------------------------|
B|-----------------------5-------------------------------------------------------------------------------------|
G|-------------------------6-----------------------------------------------------------------------------------|
D|---------------------------7------0-0-0-0-2-2-2-2-2-2-2-2-0-0-0-0-0-0-0-0-7-7-7-7-7-------------2-2-2-2-2-2-2|
A|-----------------------------7----0-0-0-0-2-2-2-2-2-2-2-2-0-0-0-0-0-0-0-0-7-7-7-7-7-------------2-2-2-2-2-2-2|
D|-2----x--2-0----x--0--------------0-0-0-0-2-2-2-2-2-2-2-2-0-0-0-0-0-0-0-0-7-7-7-7-7--------0----2-2-2-2-2-2-2|

e|---------------------------------------------------------------------------------------------------|
B|---------------------------------------------------------------------------------------------------|
G|---------------------------------------------------------------------------------------------------|
D|2-0-0-0-0-0-0-0-0-7-7-7-7-7-7-7-7-0----2-2-2-2-2-2-2-2-0-0-0-0-0-0-0-0-7-7-7-7-7-7-7-7-------------|
A|2-0-0-0-0-0-0-0-0-7-7-7-7-7-7-7-7-0----2-2-2-2-2-2-2-2-0-0-0-0-0-0-0-0-7-7-7-7-7-7-7-7-------------|
D|2-0-0-0-0-0-0-0-0-7-7-7-7-7-7-7-7-0----2-2-2-2-2-2-2-2-0-0-0-0-0-0-0-0-7-7-7-7-7-7-7-7--------0----|

2:01 - 2:27

e|----------------------------------------------------------------|
B|----------------------------------------------------------------|
G|----------------------------------------------------------------|
D|2-2-2-2-2-2-2-2-0-0-0-0-0-0-0-0-7-7-7-7-7-7-7-7-7-7-7-7-0-0-0-0-| (REPEAT 3x)
A|2-2-2-2-2-2-2-2-0-0-0-0-0-0-0-0-7-7-7-7-7-7-7-7-7-7-7-7-0-0-0-0-|
D|2-2-2-2-2-2-2-2-0-0-0-0-0-0-0-0-7-7-7-7-7-7-7-7-7-7-7-7-0-0-0-0-|

e|-------------------------------------------|
B|-------------------------------------------|
G|-------------------------------------------|
D|2-2-2-2-2-2-2-2-0-0-0-0-0-0-0-0-7-------0-0|
A|2-2-2-2-2-2-2-2-0-0-0-0-0-0-0-0-7-------0-0|
D|2-2-2-2-2-2-2-2-0-0-0-0-0-0-0-0-7-------0-0|

2:28 - 2:53

e|----------------------------------------------------------------|
B|----------------------------------------------------------------|
G|----------------------------------------------------------------|
D|2-2-2-2-2-2-2-2-0-0-0-0-0-0-0-0-7-7-7-7-7-7-7-7-7-7-7-7-0-0-0-0-| (REPEAT 4x)
A|2-2-2-2-2-2-2-2-0-0-0-0-0-0-0-0-7-7-7-7-7-7-7-7-7-7-7-7-0-0-0-0-|
D|2-2-2-2-2-2-2-2-0-0-0-0-0-0-0-0-7-7-7-7-7-7-7-7-7-7-7-7-0-0-0-0-|

2:54 - 3:07

e|---12----12----12--12----12----12--12----12----12--12----12----12--12----12----12--12----12----12-5----------|
B|-----10----10--------10----10--------10----10--------10----10--------10----10--------10----10-------5--------|
G|-12----12----12--12----12----12--12----12----12--12----12----12--12----12----12--12----12----12--12---6------|
D|--------------------------------------------------------------------------------------------------------7----|
A|----------------------------------------------------------------------------------------------------------7--|
D|-------------------------------------------------------------------------------------------------------------|

e|-----------------------|
B|-----------------------|
G|-----------------------|
D|-----------------------|
A|-----------------------|
D|-2--4--5--7--(LET RING)|

3:08 - 3:12

[SILENCE]

==============================================================================================================
|                                        ***OPTIONAL SYNTH PART***                                           |
|                                                2:28 - 2:54                                                 |
|   e|------------5--5-5---------------------5--5-5-------------7-7-7-5--5-8--8-8-5-7-5------7-7-7-5--5---|  |
|   B|-8-8-8-7--7--------7-8-7-5--8-8-8-7--7--------7-8-7-5-7-5-------------------------8---------------8-|  |
|   G|----------------------------------------------------------------------------------------------------|  |
|   D|----------------------------------------------------------------------------------------------------|  |
|   A|----------------------------------------------------------------------------------------------------|  |
|   D|----------------------------------------------------------------------------------------------------|  |
|                                                                                                            |
|   e|---------------|                                                                                       |
|   B|-8-8-8-7-5---5-|                                                                                       |
|   G|-----------7---|                                                                                       |
|   D|---------------|  (REPEAT)                                                                             |
|   A|---------------|                                                                                       |
|   D|---------------|                                                                                       |
|                                                                                                            |
|       3:05 - 3:07                                                                                          |
|                                                                                                            |
|   e|-----------------|                                                                                     |
|   B|8--8-8-8-7-5---5-|                                                                                     |
|   G|-------------7---|                                                                                     |
|   D|-----------------|   (REPEAT)                                                                          |
|   A|-----------------|                                                                                     |
|   D|-----------------|                                                                                     |
            
Submit corrections


        Every Other Freckle  lessons Hard to play? Try these video lessons and learn fast Every Other Freckle  lessons
        
↑ Back to top | Tablatures and chords for acoustic guitar and electric guitar, ukulele, drums are parodies/interpretations of the original songs. You may use it for private study, scholarship, research or language learning purposes only