» » »

Alt-j - Dancing In The Moonlight Tabs

Artists:  A B C D E F G H I J K L M N O P Q R S T U V W X Y Z # 

Dancing In The Moonlight Tabs

(ver. 1) Click to play this song!
Alt-j
 Rating:
4.4/5 (7 votes)

 Dancing In The Moonlight  lessons Tabs too difficult? Try these video lessons and learn fast
 
                Guitar 1

e|--10------10------10-|--9--------9---------|--7--------7-------7-|---------------------|
B|---------------------|---------------------|---------------------|--3-------3--------3-|
G|-----11------11------|-----9-------9-----9-|-----7-------7-------|-----2-------2-------|
D|9-------9-------9----|7-------7-------7----|5-------5-------5----|0-------0-------0----|
G|---------------------|---------------------|---------------------|---------------------|
D|9--------------------|7--------------------|5--------------------|0--------------------|

e|--10------10------10-|--9--------9---------|---------------------|---------------------|
B|---------------------|---------------------|--8~10-7-------------|---------------------|
G|-----11------11------|-----9-------9-----9-|-7--------9-7--------|--7-------7--------7-|
D|9-------9-------9----|7-------7-------7----|7-------------7-9-11-|-----7-------7-------|
G|---------------------|---------------------|0--------------------|---------------------|
D|9--------------------|7--------------------|---------------------|0-------0-------0----|

Guitar 2 (tell me why)


e|-----10------10---10-|-----9-------9-----9-|-----12------12---12-|-----10------10---10-|
B|--12------12---------|--10------10---------|--12------12---------|--12------12---------|
G|---------------------|---------------------|---------------------|---------------------|
D|9-------9-------9----|7-------7-------7----|14*-----14-----14----|12------12-----12----|
G|---------------------|---------------------|0--------------------|---------------------|
D|9--------------------|7--------------------|---------------------|0--------------------|
            
Submit corrections


        Dancing In The Moonlight  lessons Hard to play? Try these video lessons and learn fast Dancing In The Moonlight  lessons
        
↑ Back to top | Tablatures and chords for acoustic guitar and electric guitar, ukulele, drums are parodies/interpretations of the original songs. You may use it for private study, scholarship, research or language learning purposes only