» » »

Alt-j - Choice Kingdom Tabs

Artists:  A B C D E F G H I J K L M N O P Q R S T U V W X Y Z # 

Choice Kingdom Tabs

(ver. 1) Click to play this song!
Alt-j
 Rating:
4/5 (4 votes)

 Choice Kingdom  lessons Tabs too difficult? Try these video lessons and learn fast
 
                Tuning: Drop D


ATMOSPHERIC SOUNDS (0:00-0:19)

VERSE 1 (0:20-0:43)
e|---------------------------------|
B|---------------------------------|
G|-----0-------0-------0-------0---|
D|---------------------------------|
A|---2---2---2---2---2---2---2---2-|
D|-2-------2-------2-------2-------|
       Your    choice  king -  dom

e|---------------------------------|
B|---------------------------------|
G|-----0-------0-------0-------0---|
D|---------------------------------|
A|---5---5---5---5---5---5---5---5-|
D|-5-------5-------5-------5-------|
       Their   voice   hear    them

e|---------------------------------|
B|---------------------------------|
G|---------------------------------|
D|-----4-------4-------4-------4---|
A|---0---0---0---0---0---0---0---0-|
D|-0-------0-------0-------0-------|
       Our     choice  king -  dom


CHORUS (0:43-1:11)
e|---------------------------------------------------------|
B|---------------------------------------------------------|
G|---------------------0-----------------------------------|
D|-----7-------4---------------4-------4-------4-------4---|
A|---7---7---0---0---5---5---0---0---0---0---0---0---0---0-|
D|-7-------0-------5-------0-------0-------0-------0-------|
   Ohou-oh Ohou-oh Ohou-oh Ohou-ohhhhh

e|---------------------------------------------------------|
B|---------------------------------------------------------|
G|---------------------0-----------------------------------|
D|-----7-------4---------------4-------4-------4-------4---|
A|---7---7---0---0---5---5---0---0---0---0---0---0---0---0-|
D|-7-------0-------5-------0-------0-------0-------0-------|
   Ohou-oh Ohou-oh Ohou-oh Ohou-ohhhhh


VERSE 2 (1:11-1:33)
e|---------------------------------|
B|---------------------------------|
G|-----0-------0-------0-------0---|
D|---------------------------------|
A|---2---2---2---2---2---2---2---2-|
D|-2-------2-------2-------2-------|
       Their   choice  king -  dom

e|---------------------------------|
B|---------------------------------|
G|-----0-------0-------0-------0---|
D|---------------------------------|
A|---5---5---5---5---5---5---5---5-|
D|-5-------5-------5-------5-------|
       Our     voice   crowns  men

e|---------------------------------|
B|---------------------------------|
G|---------------------------------|
D|-----4-------4-------4-------4---|
A|---0---0---0---0---0---0---0---0-|
D|-0-------0-------0-------0-------|
       Our     choice  king -  dom


CHORUS (1:33-2:00)
e|---------------------------------------------------------|
B|---------------------------------------------------------|
G|---------------------0-----------------------------------|
D|-----7-------4---------------4-------4-------4-------4---|
A|---7---7---0---0---5---5---0---0---0---0---0---0---0---0-|
D|-7-------0-------5-------0-------0-------0-------0-------|
   Ohou-oh Ohou-oh Ohou-oh Ohou-ohhhhh

e|---------------------------------------------------------|
B|---------------------------------------------------------|
G|---------------------0-----------------------------------|
D|-----7-------4---------------4-------4-------4-------4---|
A|---7---7---0---0---5---5---0---0---0---0---0---0---0---0-|
D|-7-------0-------5-------0-------0-------0-------0-------|
   Ohou-oh Ohou-oh Ohou-oh Ohou-ohhhhh


BRIDGE (2:00-2:55)
e|---------------------------------------------------------------------------------------------------|
B|---------------------------------------------------------------------------------------------------|
G|---------------------------------------------------------------------------------------------------|
D|---------------------------------------------------------------------------------------------------|
A|---------------------------------------------------------------------------------------------------|
D|-5-------------7-------------0-------------5-------------5-------------5-------------5-------------|
        Rule Britannia  bright ideas hide in caves

e|---------------------------------------------------------------------------------------------------|
B|---------------------------------------------------------------------------------------------------|
G|---------------------------------------------------------------------------------------------------|
D|---------------------------------------------------------------------------------------------------|
A|---------------------------------------------------------------------------------------------------|
D|-5-------------7-------------0-------------5-------------5-------------5-------------5-------------|
        Rule Britannia break-a-stock into a  slave

e|---------------------------------------------------------------------------------------------------|
B|---------------------------------------------------------------------------------------------------|
G|---------------------------------------------------------------------------------------------------|
D|---------------------------------------------------------------------------------------------------|
A|---------------------------------------------------------------------------------------------------|
D|-5-------------7-------------0-------------5-------------5-------------5-------------5-------------|
        Rule Britannia leave us planked before the graves

e|---------------------------------------------------------------------------------------------------|
B|---------------------------------------------------------------------------------------------------|
G|---------------------------------------------------------------------------------------------------|
D|---------------------------------------------------------------------------------------------------|
A|---------------------------------------------------------------------------------------------------|
D|-5-------------7-------------0-------------5-------------5-------------5-------------5-------------|
        Rule Britannia         Ruler of the  waves

OUTRO (2:55-4:17)
e|-----------------------------------------------------------------|
B|-----------------------------------------------------------------|
G|-------0-------0-------0-------0-------0-------0-------0-------0-|
D|-----2-------2-------2-------2-------2-------2-------2-------2---|
A|---2-------2-------2-------2-------2-------2-------2-------2-----|
D|-2-------2-------2-------2-------2-------2-------2-------2-------|

e|-----------------------------------------------------------------|
B|-----------------------------------------------------------------|
G|-------0-------0-------0-------0-------0-------0-------0-------0-|
D|-----4-------4-------4-------4-------4-------4-------4-------4---|
A|---5-------5-------5-------5-------5-------5-------5-------5-----|
D|-5-------5-------5-------5-------5-------5-------5-------5-------|

e|-----------------------------------------------------------------|
B|-----------------------------------------------------------------|
G|-------0-------0-------0-------0-------0-------0-------0-------0-|
D|-----4-------4-------4-------4-------4-------4-------4-------4---|
A|---0-------0-------0-------0-------0-------0-------0-------0-----|
D|-0-------0-------0-------0-------0-------0-------0-------0-------|

e|-----------------------------------------------------------------|
B|-----------------------------------------------------------------|
G|-------0-------0-------0-------0-------0-------0-------0-------0-|
D|-----2-------2-------2-------2-------2-------2-------2-------2---|
A|---2-------2-------2-------2-------2-------2-------2-------2-----|
D|-2-------2-------2-------2-------2-------2-------2-------2-------|

e|-----------------------------------------------------------------|
B|-----------------------------------------------------------------|
G|-------0-------0-------0-------0-------0-------0-------0-------0-|
D|-----4-------4-------4-------4-------4-------4-------4-------4---|
A|---5-------5-------5-------5-------5-------5-------5-------5-----|
D|-5-------5-------5-------5-------5-------5-------5-------5-------|

e|-----------------------------------------------------------------|
B|-----------------------------------------------------------------|
G|-------0-------0-------0-------0-------0-------0-------0-------0-|
D|-----4-------4-------4-------4-------4-------4-------4-------4---|
A|---0-------0-------0-------0-------0-------0-------0-------0-----|
D|-0-------0-------0-------0-------0-------0-------0-------0-------|

e|---------------------------------------------------------|
B|---------------------------------------------------------|
G|---------------------------------------------------------|
D|---------------------------------------------------------|
A|---------------------------------------------------------|
D|-7-------0-------5-------0-------------------------------|
   Oh        ouhou houhouuu

e|---------------------------------------------------------|
B|---------------------------------------------------------|
G|---------------------------------------------------------|
D|---------------------------------------------------------|
A|---------------------------------------------------------|
D|-7-------0-------5-------0-------------------------------|
   AhAhah  Ouhouou Ouhouhou            
Submit corrections


        Choice Kingdom  lessons Hard to play? Try these video lessons and learn fast Choice Kingdom  lessons
        
↑ Back to top | Tablatures and chords for acoustic guitar and electric guitar, ukulele, drums are parodies/interpretations of the original songs. You may use it for private study, scholarship, research or language learning purposes only