» » »

Alt-j - Adeline Chords

Artists:  A B C D E F G H I J K L M N O P Q R S T U V W X Y Z # 

Adeline Chords

(ver. 1) Click to play this song!
Alt-j
 Rating:
4.3/5 (28 votes)

 Adeline  lessons Tabs too difficult? Try these video lessons and learn fast
 
                Verse chord shapes
    Em          C           G           Asus2       D5
e|------0----|------0----|------0----|------0----|------0----|
B|-----------|-----------|-----------|-----------|-----------|
G|-----------|-----------|-----------|-----------|-----------|
D|----2---2--|----2---2--|----5---5--|----7---7--|----0---0--|
A|-----------|--3--------|-----------|-----------|-----------|
D|--2--------|-----------|--5--------|--7--------|--0--------|


Chorus chord shapes
    D5/A        Am          C           G           D5
e|-----------|------5----|------5----|------5----|------5----|
B|-----------|-----------|-----------|-----------|-----------|
G|--2--------|----5---5--|----5---5--|----5---5--|----5---5--|
D|--0--------|-----------|-----------|-----------|-----------|
A|--0--------|--0--------|--3--------|-----------|--5--------|
D|-----------|-----------|-----------|--5--------|-----------|


Capo 2nd fret
Drop D-tuning


[Intro]
Em


[Verse 1]
Em      C 
Ooh, my Adeline
G  Asus2 D5  Em
Hmm-mmmm mmm mmm
Em        C 
Down in Tasmania
          G                        Asus2 D5              Em
Where the devil's jaws are far too weak --- to tear you away


[Chorus 1]
D5/A            Am   C
Ooh, I wish you well
           G    D5
I wish you well
           Am   C
I wish you well
           G    D5
I wish you well


[Verse 2]
Em      C 
Ooh, my Adeline
G                    Asus2      D5  Em
I watch your morning swim again
Em                 C 
Ooh, cold come from blue sky
G                    Asus2  D5          Em
Strokes from passing mopeds -- my sweet Adeline


[Chorus 2]
D5/A            Am                             C
Ooh, I wish you well (ah-ah ah-ah ah-ah ah, my Adeline)
           G    D5
I wish you well
           Am                             C
I wish you well (ah-ah ah-ah ah-ah ah, my Adeline)
           G    D5
I wish you well


[Bridge 1]
        Am                 C          
And the Auld triangle went jingle-jangle
        G            D
(On the old) Royal Can*l
   Am                          C           
My Adeline was swimming, sweet Adeline was singing
       G                   D
To the tune of the Royal Can*l


[Bridge 2]
        Am                 C          
And the Auld triangle went jingle-jangle
       G           D
On the old Royal Can*l
   Am                          C           
My Adeline was swimming, sweet Adeline was singing
       G                   D
To the tune of the Royal Can*l


[Chorus 3]
           Am              C
I wish her well 
          (yah-yah yah-yah yah-yah yah-yah)
           G               D5
I wish her well
          (yah-yah yah-yah yah-yah yah)
           Am              C
I wish her well 
          (yah-yah yah-yah yah-yah yah-yah)
           G               D5
I wish her well
          (yah-yah yah-yah yah-yah yah)
           N.C.
I wish her well
          (yah-yah yah-yah yah-yah yah-yah)

            
Submit corrections


        Adeline  lessons Hard to play? Try these video lessons and learn fast Adeline  lessons
        
↑ Back to top | Tablatures and chords for acoustic guitar and electric guitar, ukulele, drums are parodies/interpretations of the original songs. You may use it for private study, scholarship, research or language learning purposes only