» » »

Alt-j - 3Ww Tabs

Artists:  A B C D E F G H I J K L M N O P Q R S T U V W X Y Z # 

3Ww Tabs

(ver. 1) Click to play this song!
Alt-j
 Rating:
4.4/5 (19 votes)

 3Ww  lessons Tabs too difficult? Try these video lessons and learn fast
 
                Drop D tuning


[Intro]

e|----------------------------------|     e|------------------------|
B|----------------------------------|     B|------------------------|
G|----------------------------------|     G|--------2----------2----|
D|--0h9h10---0h7h9---0h4h5---0h5h7--|     D|------------------------|x4
A|----------------------------------|     A|------------------------|
D|----------------------------------|     D|--0---0-----0---0----0--|


e|----------------------------------|     e|------------------------|
B|----------------------------------|     B|------------------------|
G|----------------------------------|     G|------------------------|
D|--0h12h10---0h10h9----------------|     D|--------0----------0----|x4
A|---------------------5--7--3--5---|     A|------------------------|
D|----------------------------------|     D|--0---0-----0---0----0--|


e|----------------------------------|     e|------------------------|
B|----------------------------------|     B|------------------------|
G|----------------------------------|     G|--------2----------2----|
D|--0h9h10----10--9---5---5-7--5-7--|     D|------------------------|x4
A|----------------------------------|     A|------------------------|
D|----------------------------------|     D|--0---0-----0---0----0--|


e|----------------------------------|     e|------------------------|
B|----------------------------------|     B|------------------------|
G|----------------------------------|     G|------------------------|
D|--0h12h10---0h10h9----------------|     D|--------0----------0----|x4
A|---------------------5--7--3--5---|     A|------------------------|
D|----------------------------------|     D|--0---0-----0---0----0--|


e|----------------------------------|     e|------------------------|
B|----------------------------------|     B|--------2h3--------2h3--|
G|----------------------------------|     G|------------------------|
D|----------------------------------|x4   D|------------------------|x8
A|-----------5----------5-----------|     A|------------------------|
D|-----5---5----5----5-----5--------|     D|--0---0-----0----0------|


[Verse 1]
                                                       D    
e|--------------------------------------------------|------------------------|
B|--------------------------------------------------|--------2h3--------2h3--|
G|--------------------------------------------------|------------------------|
D|--------------------------------------------------|------------------------|x2
A|--------------------------------------------------|------------------------|
D|--------------------------------------------------|--0---0-----0----0------|

   There was a wayward lad, stepped out one morning
                                                       D
e|--------------------------------------------------|------------------------|
B|--------------------------------------------------|--------2h3--------2h3--|
G|--------------------------------------------------|------------------------|
D|--------------------------------------------------|------------------------|x2
A|--------------------------------------------------|------------------------|
D|--------------------------------------------------|--0---0-----0----0------|

   The ground to be his bed, the sky his awning


[Verse 2]

    D                      G           A                 Em      A          D
e|-------------------------3--|--------5-----------------7-7-7-7---------|------------------------|
B|--------2h3--------2h3---3--|--------5-----------------8-8-8-8-10--10--|--3-----2h3--------2h3--|
G|-------------------------4--|--------6-----------------9-9-9-9-9---9---|--2---------------------|
D|-------------------------5--|--------7---------------------------------|--0---------------------|
A|-------------------------5--|--------7---------------------------------|--0---------------------|
D|--0---0-----0----0-------5--|--------7---------------------------------|--0---0-----0----0------|

  Neon,       neon,      neon,  a blue neon lamp in a midnight   country      field

    D                                               G      A                   Em      A       D
e|------------------------|-------------------------3--|---5-------------------7-7-7-7------------|
B|--------2h3--------2h3--|--------2h3--------2h3---3--|---5-------------------8-8-8-8-10--10--3--|
G|------------------------|-------------------------4--|---6-------------------9-9-9-9-9---9---2--|
D|------------------------|-------------------------5--|---7-----------------------------------0--|
A|------------------------|-------------------------5--|---7-----------------------------------0--|
D|--0---0-----0----0------|--0---0-----0----0-------5--|---7-----------------------------------0--|

                Can't surround so you lean on, lean on, so much your heart's become fond of    this


[Chorus 1]

    D     Dsus2       D5                                    
e|--2-----0-----0---------------------------------------|-------------------------|
B|--3-----3-----3-----3-----3----3--------3----------3--|-----------3--/7---5-----|
G|--2-----2-----2-----2-----2----2--------2----------2--|--2---h4-----------------|
D|--0-----0-----0-----0-----0---------------------------|--0----------------------|
A|------------------------------------------------------|-------------------------|
D|------------------------------------4-------4--2------|-------------------------|

    Oh    these three worn  words, oh, that we whisper,    like the rubbing hands

    A           A/G         F#m
e|---------------------------------|-----------------------------------|
B|---------------------------------|-----------------------------------|
G|--------6-----------6------------|-----------------------------------|
D|--------7-----------7------------|-----------------------------------|
A|--------7-----------7------------|-----------------------------------|
D|--7-----------5-----------4------|-----------------------------------|       
   
             of tourists in Verona,    I just want to love you in my 

    D          D/C#      D/B       D/A        G         F#m         Em    
e|---------------------------------------------------------------------|
B|-------3----------3---------3----------------------------------------|
G|--------------------------------------2----------0-------------------|
D|------------------------------------------------------------4--------|
A|--5-------5--4------4--2------2--0-------0---------------------------|
D|--------------------------------------------5-------5--4-------4--2--|

    own language


[Verse 3]

    F#m            E             D
e|-----------------------0---2-----------------------------------------|
B|---------------------------------------------------------------------|
G|---------------------------------------------------------------------|
D|------------------------------------------------------7 \------------|
A|--4------4---4---2-------------0------0---0----0---------------------|
E|--4------4---4---2-------------0------0---0----0---------------------|

         Well that smell of sex, good like burning wood

    Bm             A             D
e|-----------------------0---2-----------------------------------------|
B|------------------------------------------------------10\------------|
G|--4------4---4---2---------------------------------------------------|
D|--4------4---4---2---------------------------------------------------|
A|--2------2---2---0-------------0------0---0----0---------------------|
E|-------------------------------0------0---0----0---------------------|
   
       The wayward lad laid  clean

    F#m            E                D
e|-----------------------0---2-----------------------------------------|
B|---------------------------------------------------------------------|
G|---------------------------------------------------------------------|
D|------------------------------------------------------7 \------------|
A|--4------4---4---2----------------0------0---0----0------------------|
E|--4------4---4---2----------------0------0---0----0------------------|

        Jumped two busty girls from Hornsea

    Bm             A             D
e|-----------------------0---2-----------------------------------------|
B|------------------------------------------------------10\------------|
G|--4------4---4---2---------------------------------------------------|
D|--4------4---4---2---------------------------------------------------|
A|--2------2---2---0-------------0------0---0----0---------------------|
E|-------------------------------0------0---0----0---------------------|
   
        Who left a note in black ink


[Bridge]

    F#m                  E             D
e|---------------------------------------------------------------------|
B|---------------------------------------------------------------------|
G|---------------------------------------------------------------------|
D|---------------------------------------------------------------------|
A|--4--------------------2-------------0-------------------------------|
E|--4--------------------2-------------0-------------------------------|

    Girls from above say hi (hi)

      Bm             A                 D
e|---------------------------------------------------------------------|
B|---------------------------------------------------------------------|
G|---------------------------------------------------------------------|
D|----4--------------2-------------------------------------------------|
A|----2--------------0-----------------0-------------------------------|
E|-------------------------------------0-------------------------------|

  The road erodes at five feet per year along England's east coastline

    F#m                 E              D
e|---------------------------------------------------------------------|
B|---------------------------------------------------------------------|
G|---------------------------------------------------------------------|
D|---------------------------------------------------------------------|
A|--4-------------------2--------------0-------------------------------|
E|--4-------------------2--------------0-------------------------------|

    Was this your first time?

      Bm             A                 D
e|---------------------------------------------------------------------|
B|---------------------------------------------------------------------|
G|---------------------------------------------------------------------|
D|----4--------------2-------------------------------------------------|
A|----2--------------0-----------------0-------------------------------|
E|-------------------------------------0-------------------------------|

      Love is just a button we press,   last night by the campfire


[Chorus 2]

    D     Dsus2       D5                                    
e|--2-----0-----0---------------------------------------|-------------------------|
B|--3-----3-----3-----3-----3----3--------3----------3--|-----------3--/7---5-----|
G|--2-----2-----2-----2-----2----2--------2----------2--|--2---h4-----------------|
D|--0-----0-----0-----0-----0---------------------------|--0----------------------|
A|------------------------------------------------------|-------------------------|
D|------------------------------------4-------4--2------|-------------------------|

    Oh    these three worn  words, oh, that we whisper,    like the rubbing hands

    A           A/G         F#m
e|---------------------------------|-----------------------------------|
B|---------------------------------|-----------------------------------|
G|--------6-----------6------------|-----------------------------------|
D|--------7-----------7------------|-----------------------------------|
A|--------7-----------7------------|-----------------------------------|
D|--7-----------5-----------4------|-----------------------------------|       
   
             of tourists in Verona,    I just want to love you in my 

    D          D/C#      D/B       D/A        G         F#m         Em    
e|---------------------------------------------------------------------|
B|-------3----------3---------3----------------------------------------|
G|--------------------------------------2----------0-------------------|
D|------------------------------------------------------------4--------|
A|--5-------5--4------4--2------2--0-------0---------------------------|
D|--------------------------------------------5-------5--4-------4--2--|

    own language


[Outro]

    D
e|--------------------------|
B|--------2h3--------2h3----|
G|--------------------------|
D|--------------------------| x4
A|--------------------------|
D|--0---0-----0----0-----0--|

            
Submit corrections


        3Ww  lessons Hard to play? Try these video lessons and learn fast 3Ww  lessons
        
↑ Back to top | Tablatures and chords for acoustic guitar and electric guitar, ukulele, drums are parodies/interpretations of the original songs. You may use it for private study, scholarship, research or language learning purposes only