» » »

Alt-j - 353 Tabs

Artists:  A B C D E F G H I J K L M N O P Q R S T U V W X Y Z # 

353 Tabs

(ver. 1) Click to play this song!
Alt-j
 Rating:
4.4/5 (11 votes)

 353  lessons Tabs too difficult? Try these video lessons and learn fast
 
                [Intro]

e|-2----2-2----2-2-2-2----2-2----2-2-2--|
B|-2----2-2----2-2-2-2----2-2----2-2-2--|
G|-2----2-2----2-2-2-2----2-2----2-2-4--| play 4x
D|--------------------------------------|
A|--------------------------------------|
E|--------------------------------------|

e|-----------------2-----------------2--|
B|-2----2-2----2-2-2-2----2-2----2-2-2--|
G|-2----2-2----2-2-2-2----2-2----2-2-2--| play 2x
D|-4----4-4----4-4---4----4-4----4-4----|
A|--------------------------------------|
E|--------------------------------------|



[Verse]

no guitar





[Chorus]

e|-----------------------------5---|---------------------------------|
B|-7-----7-----7---5-----5---------|-------------2-3-0-----0-----0---|
G|---7-----7---------6-----6-------|-2-----2-------------1-----1-----|
D|-----7-----7---------7-----7-----|-----4-----4---------------------|
A|---------------------------------|---------------------------------|
E|---------------------------------|---------------------------------|
       "The minister..."

e|-----------------------------5---|---------------------------------|
B|-7-----7-----7---5-----5---------|-------------2-3-0-----0---------|
G|---7-----7---------6-----6-------|-2-----2-------------1-----1-2---|
D|-----7-----7---------7-----7-----|-----4-----4---------------------|
A|---------------------------------|---------------------------------|
E|---------------------------------|---------------------------------|

e|-----------------------------5---|---------------------------------|
B|-7-----7-----7---5-----5---------|-------------2-3-0-----0-----0---|
G|---7-----7---------6-----6-------|-2-----2-------------1-----1-----| play 2x
D|-----7-----7---------7-----7-----|-----4-----4---------------------|
A|---------------------------------|---------------------------------|
E|---------------------------------|---------------------------------|


e|---------------------------------|-----------------------------------------|
B|----------3----------------------|-----------------------------------------|
G|----------2----------------------|-----------------------------------------|
D|-0--------0--------0-------------|-----------------------------------------|
A|-0-----------------0-------------|-----------------------------------------|
E|---------------------------------|-----------------------------------------|

e|-----------------------------5---|---------------------------------|
B|-7-----7-----7---5-----5---------|-------------2-3-0-----0-----0---|
G|---7-----7---------6-----6-------|-2-----2-------------1-----1-----| play 3x
D|-----7-----7---------7-----7-----|-----4-----4---------------------| with rhythm
A|---------------------------------|---------------------------------| variations
E|---------------------------------|---------------------------------|
   "Kiss me..."


[Piano Outro Chords]

   repeated until the end
e|-2-----------------|-2----------------|-0----------------|-0-------------------|
B|-3-----------------|-3----------------|-2----------------|-0-------------------|
G|-4-----------------|-2----------------|-2----------------|-1-------------------|
D|-4-----------------|-0----------------|-2----------------|-2-------------------|
A|-2-----------------|------------------|-0----------------|-2-------------------|
E|-------------------|------------------|------------------|-0-------------------|



            
Submit corrections


        353  lessons Hard to play? Try these video lessons and learn fast 353  lessons
        
↑ Back to top | Tablatures and chords for acoustic guitar and electric guitar, ukulele, drums are parodies/interpretations of the original songs. You may use it for private study, scholarship, research or language learning purposes only