Home » A » Alter Bridge »

Alter Bridge - Last Of Our Kind Chords

Artists:  A B C D E F G H I J K L M N O P Q R S T U V W X Y Z # 

Last Of Our Kind Chords

(ver. 1) Click to play this song!
Alter Bridge
[Intro]                                 
                                                           3x
D#|----------------------------|----------------------------|
A#|--8\7---8\7---7---7---7--7--|--8\7---8/7---10--10--10-8--|
D#|-12\11-12\11--11--11--11-11-|-12\11-12/14--14--14--14-12-|
A#|----------------------------|----------------------------|
F |----------------------------|----------------------------|
A#|----------------------------|----------------------------|

D#|----------------------------|-------------------------|
A#|--8\7---8\7---7---7---7--7--|--8\7---8/12--12--12-----|
D#|-12\11-12\11--11--11--11-11-|-12\11-12----------------|
A#|----------------------------|-------------------------|
F |-0--------------------------|-------------------------|
A#|-0--------------------------|-------------------0-12\-|

D#|---------------------------|-------------------------|
A#|---------------------------|-------------------------|
D#|---------------------------|-------------------------|
A#|---------------------4h5-4-|-------------------------|
F |-----------5h6p5p3-x-------|---------5h6p5p3-x-5h6-5-|
A#|-0--0--0-0-----------------|--0--0-0-----------------|

D#|-------------------------|-----------------|
A#|-------------------------|-----------------|
D#|-------------------------|-----------------|
A#|-------------------4h5-4-|----4h5p1----1h3-|
F |---------5h6p5p3-x-------|-----------------|
A#|--0--0-0-----------------|--0--------0-----|

D#|---------------------------|-------------------------|
A#|---------------------------|-------------------------|
D#|---------------------------|-------------------------|
A#|---------------------4h5-4-|-------------------------|
F |-----------5h6p5p3-x-------|---------5h6p5p3-x-5h6-5-|
A#|-0--0--0-0-----------------|--0--0-0-----------------|

D#|-------------------------|-----------------|
A#|-------------------------|-----------------|
D#|-------------------------|-----------------|
A#|-------------------4h5-4-|----4h5p1----1h3-|
F |---------5h6p5p3-x-------|-----------------|
A#|--0--0-0-----------------|--0--------0-----|

[Verse 1]
D#|----------------------------|-------------------------|
A#|----------------------------|-------------------------|
D#|----------------------------|-------------------------|
A#|----------------------------|-------------------------|
F |-----------5h6p5p3-x-5/10-9-|---------5h6p5p3-x-5h6-5-|
A#|-0--0--0-0------------------|--0--0-0-----------------|

D#|--------------------------|------------------|
A#|--------------------------|------------------|
D#|--------------------------|------------------|
A#|--------------------------|------------------|
F |---------5h6p5p3-x-5/10-9-|----9h10-6----6h8-|
A#|--0--0-0------------------|--0---------0-----|

D#|----------------------------|-------------------------|
A#|----------------------------|-------------------------|
D#|----------------------------|-------------------------|
A#|----------------------------|-------------------------|
F |-----------5h6p5p3-x-5/10-9-|---------5h6p5p3-x-5h6-5-|
A#|-0--0--0-0------------------|--0--0-0-----------------|

D#|------------------------|--------------|
A#|------------------------|-8--8--5----6-|
D#|------------------------|----------x---|
A#|------------------------|-8--7--5--x-6-|
F |---------5h6p5p3-x-5/10-|--------------|
A#|--0--0-0----------------|--------------|

[Pre-chorus]
D#|----------------------------|-------------------------|
A#|----------------------------|-------------------------|
D#|----------------------------|-------------------------|
A#|----------------------------|-------------------------|
F |-----------5h6p5p3-x-5/10-9-|---------5h6p5p3-x-5h6-5-|
A#|-0--0--0-0------------------|--0--0-0-----------------|

D#|--------------------------|------------------|
A#|--------------------------|------------------|
D#|--------------------------|------------------|
A#|--------------------------|------------------|
F |---------5h6p5p3-x-5/10-9-|----9h10-6----6h8-|
A#|--0--0-0------------------|--0---------0-----|

D#|----------------------------|-------------------------|
A#|----------------------------|-------------------------|
D#|----------------------------|-------------------------|
A#|----------------------------|-------------------------|
F |-----------5h6p5p3-x-5/10-9-|---------5h6p5p3-x-5h6-5-|
A#|-0--0--0-0------------------|--0--0-0-----------------|

D#|------------------------|--------------|
A#|------------------------|-8--8--5----6-|
D#|------------------------|----------x---|
A#|------------------------|-8--7--5--x-6-|
F |---------5h6p5p3-x-5/10-|--------------|
A#|--0--0-0----------------|--------------|

D#|-----------|----12--------|
A#|----5------|---(5)-12-13--|
D#|------7b8--|------(7)(8)--|
A#|-----------|--------------|
F |-----------|--------------|
A#|-----------|-0------------|

[Chorus] 
D#|-0---|-0--|-2--|-2--|-0---|-0--|-2--|-2--|-0---|-----|
A#|-0---|-0--|-0--|-0--|-0---|-0--|-0--|-0--|-0---|-0---|
D#|-12--|-7--|-2--|-2--|-12--|-7--|-2--|-2--|-12--|-12--|
A#|-12--|-5--|-0--|-0--|-12--|-5--|-0--|-0--|-12--|-12--|
F |-10--|-5--|-0--|-0--|-10--|-5--|-0--|-0--|-10--|-10--|
A#|-----|-5--|-0--|-0--|-----|-5--|-0--|-0--|-----|-12--|

[Instrumental]
D#|---------------------------|-------------------------|
A#|---------------------------|-------------------------|
D#|---------------------------|-------------------------|
A#|---------------------4h5-4-|-------------------------|
F |-----------5h6p5p3-x-------|---------5h6p5p3-x-5h6-5-|
A#|-0--0--0-0-----------------|--0--0-0-----------------|

D#|-------------------------|-----------------|
A#|-------------------------|-----------------|
D#|-------------------------|-----------------|
A#|-------------------4h5-4-|----4h5p1----1h3-|
F |---------5h6p5p3-x-------|-----------------|
A#|--0--0-0-----------------|--0--------0-----|

[Verse 2]
D#|----------------------------|-------------------------|
A#|----------------------------|-------------------------|
D#|----------------------------|-------------------------|
A#|----------------------------|-------------------------|
F |-----------5h6p5p3-x-5/10-9-|---------5h6p5p3-x-5h6-5-|
A#|-0--0--0-0------------------|--0--0-0-----------------|

D#|--------------------------|------------------|
A#|--------------------------|------------------|
D#|--------------------------|------------------|
A#|--------------------------|------------------|
F |---------5h6p5p3-x-5/10-9-|----9h10-6----6h8-|
A#|--0--0-0------------------|--0---------0-----|

D#|----------------------------|-------------------------|
A#|----------------------------|-------------------------|
D#|----------------------------|-------------------------|
A#|----------------------------|-------------------------|
F |-----------5h6p5p3-x-5/10-9-|---------5h6p5p3-x-5h6-5-|
A#|-0--0--0-0------------------|--0--0-0-----------------|

D#|------------------------|--------------|
A#|------------------------|-8--8--5----6-|
D#|------------------------|----------x---|
A#|------------------------|-8--7--5--x-6-|
F |---------5h6p5p3-x-5/10-|--------------|
A#|--0--0-0----------------|--------------|

[Pre-chorus]
D#|----------------------------|-------------------------|
A#|----------------------------|-------------------------|
D#|----------------------------|-------------------------|
A#|----------------------------|-------------------------|
F |-----------5h6p5p3-x-5/10-9-|---------5h6p5p3-x-5h6-5-|
A#|-0--0--0-0------------------|--0--0-0-----------------|

D#|--------------------------|------------------|
A#|--------------------------|------------------|
D#|--------------------------|------------------|
A#|--------------------------|------------------|
F |---------5h6p5p3-x-5/10-9-|----9h10-6----6h8-|
A#|--0--0-0------------------|--0---------0-----|

D#|----------------------------|-------------------------|
A#|----------------------------|-------------------------|
D#|----------------------------|-------------------------|
A#|----------------------------|-------------------------|
F |-----------5h6p5p3-x-5/10-9-|---------5h6p5p3-x-5h6-5-|
A#|-0--0--0-0------------------|--0--0-0-----------------|

D#|------------------------|--------------|
A#|------------------------|-8--8--5----6-|
D#|------------------------|----------x---|
A#|------------------------|-8--7--5--x-6-|
F |---------5h6p5p3-x-5/10-|--------------|
A#|--0--0-0----------------|--------------|

D#|-----------|----12--------|
A#|----5------|---(5)-12-10--|
D#|------7b8--|------(7)(5)--|
A#|-----------|--------------|
F |-----------|--------------|
A#|-----------|-0------------|

[Chorus]
D#|-0---|-0--|-2--|-2--|-0---|-0--|-2--|-2--|-0---|-----|
A#|-0---|-0--|-0--|-0--|-0---|-0--|-0--|-0--|-0---|-0---|
D#|-12--|-7--|-2--|-2--|-12--|-7--|-2--|-2--|-12--|-12--|
A#|-12--|-5--|-0--|-0--|-12--|-5--|-0--|-0--|-12--|-12--|
F |-10--|-5--|-0--|-0--|-10--|-5--|-0--|-0--|-10--|-10--|
A#|-----|-5--|-0--|-0--|-----|-5--|-0--|-0--|-----|-12--|

[Instrumental]
D#|-----------------------|-----------------------|
A#|-----------------------|-----------------------|
D#|-----------------------|-----------------------|
A#|-----------------------|-----------------------|
F |-5---------------------|-6---------------------|
A#|---0--0--0--0--0-0-0-0-|---0--0--0--0--0-0-0-0-|

D#|-----------------------|-----------------------------------|
A#|-----------------------|-----------------------------------|
D#|-----------------------|-----------------------------------|
A#|-----------------------|-----------------------------------|
F |-6---------------------|-6-------5-------3-------5h6-------|
A#|---0--0--0--0--0-0-0-0-|---0-0-0---0-0-0---0-0-0-----0-0-0-|

D#|-----------------------|-----------------------|
A#|-----------------------|-----------------------|
D#|-----------------------|-----------------------|
A#|-----------------------|-----------------------|
F |-5---------------------|-6---------------------|
A#|---0--0--0--0--0-0-0-0-|---0--0--0--0--0-0-0-0-|

D#|-----------------------|-----------------------------------|
A#|-----------------------|-----------------------------------|
D#|-----------------------|-----------------------------------|
A#|-----------------------|-----------------------------------|
F |-6---------------------|-6-------5-------3-------5h6-------|
A#|---0--0--0--0--0-0-0-0-|---0-0-0---0-0-0---0-0-0-----0-0-0-|

[Bridge]
D#|-----------------------|-----------------------|
A#|-----------------------|-----------------------|
D#|-----------------------|-----------------------|
A#|-----------------------|-----------------------|
F |-5---------------------|-6---------------------|
A#|---0--0--0--0--0-0-0-0-|---0--0--0--0--0-0-0-0-|
                
D#|-----------------------|-----------------------------------|
A#|-----------------------|-----------------------------------|
D#|-----------------------|-----------------------------------|
A#|-----------------------|-----------------------------------|
F |-6---------------------|-6-------5-------3-------5h6-------|
A#|---0--0--0--0--0-0-0-0-|---0-0-0---0-0-0---0-0-0-----0-0-0-|

D#|-----------------------|-----------------------|
A#|-----------------------|-----------------------|
D#|-----------------------|-----------------------|
A#|-----------------------|-----------------------|
F |-5---------------------|-6---------------------|
A#|---0--0--0--0--0-0-0-0-|---0--0--0--0--0-0-0-0-|

D#|-----------------------|-----------------------------------|
A#|-----------------------|-----------------------------------|
D#|-----------------------|-----------------------------------|
A#|-----------------------|-----------------------------------|
F |-6---------------------|-6-------5-------3-------5h6-------|
A#|---0--0--0--0--0-0-0-0-|---0-0-0---0-0-0---0-0-0-----0-0-0-|

D#|-----------------------|-----------------------|
A#|-----------------------|-----------------------|
D#|-----------------------|-----------------------|
A#|-----------------------|-----------------------|
F |-5---------------------|-6---------------------|
A#|---0--0--0--0--0-0-0-0-|---0--0--0--0--0-0-0-0-|

D#|-----------------------|-----------------------------------|
A#|-----------------------|-----------------------------------|
D#|-----------------------|-----------------------------------|
A#|-----------------------|-----------------------------------|
F |-6---------------------|-6-------5-------3-------5h6-------|
A#|---0--0--0--0--0-0-0-0-|---0-0-0---0-0-0---0-0-0-----0-0-0-|

D#|-----------------------|-----------------------|
A#|-----------------------|-----------------------|
D#|-----------------------|-----------------------|
A#|-----------------------|-----------------------|
F |-5---------------------|-6---------------------|
A#|---0--0--0--0--0-0-0-0-|---0--0--0--0--0-0-0-0-|

D#|-----------------------|--------|
A#|-----------------------|--------|
D#|-----------------------|--------|
A#|-----------------------|--------|
F |-6---------------------|-6------|
A#|---0--0--0--0--0-0-0-0-|----12\-|

[Instrumental]
D#|-------------------------------------------------|
A#|-12-12-12-12-12-12-12-12-12-12-12-12-12-12-12-12-|
D#|-------------------------------------------------|
A#|-12-12-12-12-12-12-12-12-12-12-12-12-12-12-12-12-|
F |-------------------------------------------------|
A#|-------------------------------------------------|

D#|-----------------------------------------|
A#|-12-12-12-12-12-12-12-12-7-7-7-7-7-7-7-7-|
D#|-----------------------------------------|
A#|-12-12-12-12-12-12-12-12-7-7-7-7-7-7-7-7-|
F |-----------------------------------------|
A#|-----------------------------------------|

D#|-------------------------------------------------|
A#|-10-10-10-10-10-10-10-10-10-10-10-10-10-10-10-10-|
D#|-------------------------------------------------|
A#|-10-10-10-10-10-10-10-10-10-10-10-10-10-10-10-10-|
F |-------------------------------------------------|
A#|-------------------------------------------------|

D#|-----------------------------------------|
A#|-10-10-10-10-10-10-10-10-5-5-5-5-5-5-5-5-|
D#|-----------------------------------------|
A#|-10-10-10-10-10-10-10-10-5-5-5-5-5-5-5-5-|
F |-----------------------------------------|
A#|-----------------------------------------|

D#|---------------------------------|---------------------------------|
A#|-7-7-7-7-7-7-7-7-7-7-7-7-7-7-7-7-|-7-7-7-7-7-7-7-7-3-3-3-3-3-3-3-3-|
D#|---------------------------------|---------------------------------|
A#|-7-7-7-7-7-7-7-7-7-7-7-7-7-7-7-7-|-7-7-7-7-7-7-7-7-3-3-3-3-3-3-3-3-|
F |---------------------------------|---------------------------------|
A#|---------------------------------|---------------------------------|

D#|---------------------------------|---------------------------------|
A#|-5-5-5-5-5-5-5-5-5-5-5-5-5-5-5-5-|-6-6-6-6-6-6-6-6-6-6-6-6-6-6-6-6-|
D#|---------------------------------|---------------------------------|
A#|-5-5-5-5-5-5-5-5-5-5-5-5-5-5-5-5-|-6-6-6-6-6-6-6-6-6-6-6-6-6-6-6-6-|
F |---------------------------------|---------------------------------|
A#|---------------------------------|---------------------------------|

D#|-------------------------------------------------|
A#|-12-12-12-12-12-12-12-12-12-12-12-12-12-12-12-12-|
D#|-------------------------------------------------|
A#|-12-12-12-12-12-12-12-12-12-12-12-12-12-12-12-12-|
F |-------------------------------------------------|
A#|-------------------------------------------------|

D#|-----------------------------------------|
A#|-12-12-12-12-12-12-12-12-7-7-7-7-7-7-7-7-|
D#|-----------------------------------------|
A#|-12-12-12-12-12-12-12-12-7-7-7-7-7-7-7-7-|
F |-----------------------------------------|
A#|-----------------------------------------|

D#|-------------------------------------------------|
A#|-10-10-10-10-10-10-10-10-10-10-10-10-10-10-10-10-|
D#|-------------------------------------------------|
A#|-10-10-10-10-10-10-10-10-10-10-10-10-10-10-10-10-|
F |-------------------------------------------------|
A#|-------------------------------------------------|

D#|-----------------------------------------|
A#|-10-10-10-10-10-10-10-10-5-5-5-5-5-5-5-5-|
D#|-----------------------------------------|
A#|-10-10-10-10-10-10-10-10-5-5-5-5-5-5-5-5-|
F |-----------------------------------------|
A#|-----------------------------------------|

D#|---------------------------------|---------------------------------|
A#|-7-7-7-7-7-7-7-7-7-7-7-7-7-7-7-7-|-7-7-7-7-7-7-7-7-3-3-3-3-3-3-3-3-|
D#|---------------------------------|---------------------------------|
A#|-7-7-7-7-7-7-7-7-7-7-7-7-7-7-7-7-|-7-7-7-7-7-7-7-7-3-3-3-3-3-3-3-3-|
F |---------------------------------|---------------------------------|
A#|---------------------------------|---------------------------------|

D#|---------------------------------|---------------------------------|
A#|-5-5-5-5-5-5-5-5-5-5-5-5-5-5-5-5-|-5-5-5-5-5-5-5-5b6-6-6-6-6-6-6-6-|
D#|---------------------------------|---------------------------------|
A#|-5-5-5-5-5-5-5-5-5-5-5-5-5-5-5-5-|-5-5-5-5-5-5-5-5p6-6-6-6-6-6-6-6-|
F |---------------------------------|---------------------------------|
A#|---------------------------------|---------------------------------|

[Chorus]
D#|-0---|-0--|-2--|-2--|-0---|-0--|-2--|-2--|
A#|-0---|-0--|-0--|-0--|-0---|-0--|-0--|-0--|
D#|-12--|-7--|-2--|-2--|-12--|-7--|-2--|-2--|
A#|-12--|-5--|-0--|-0--|-12--|-5--|-0--|-0--|
F |-10--|-5--|-0--|-0--|-10--|-5--|-0--|-0--|
A#|-----|-5--|-0--|-0--|-----|-5--|-0--|-0--|

[Solo]
D#|------------------|---------------------|-----------------|--------------------------|
A#|-8---7-8-8h10-8-7-|-8---8-10-10h12-10-8-|-7---8-8b10--0-0-|-8-7\5-4------------------|
D#|-7----------------|---------------------|-----------------|--------------------------|
A#|------------------|---------------------|-----------------|---------8-7-5-4--1p0-----|
F |------------------|---------------------|-----------------|--------------------------|
A#|------------------|---------------------|-----------------|----------------------0-0-|

D#|-0--0-0--0-0------------|-0--0-0--0-0-------------|
A#|-8--8-8--8-8-7-8-10-8-7-|-8--8-8--8-8--10-12-10-8-|
D#|-x--x-x--x-x------------|-x--x-x--x-x-------------|
A#|-5--5-5--5-5-7-8-10-8-7-|-8--8-8--8-8--10-12-10-8-|
F |------------------------|-------------------------|
A#|------------------------|-------------------------|

D#|-0--0-0---------0-0--0-0-0-|-11b12-11-------------------------------------------|
A#|-5--5-5-8-8b10--5-5--5-5-5-|----------12-10-pb6-pb6-pbr6-4-------4h5p4h5p4------|
D#|-0--0-0---------0-0--0-----|-------------------------------7-3-0-----------0----|
A#|---------------------------|----------------------------------------------------|
F |-5--5-5---------5-5--5-----|----------------------------------------------------|
A#|---------------------------|----------------------------------------------------|

D#|---------7--------------|----------------------------|
A#|-4h5p4h5-5--4h5p4h5-8-7-|-4h5p4h5-7b8-5-4h5p4---5*-4-|
D#|---------0----------0-0-|---------0-----------7------|
A#|--------------------5---|---------5------------------|
F |------------------------|----------------------------|
A#|------------------------|----------------------------|

D#|-0-----0---12-12-|-pbr11-11----------------------------------------|
A#|-4-------4-------|----------12-10-pb6-pb6-pbr6-4-------4h5p4h5p4---|
D#|---3-2-----------|-------------------------------7-3-0-----------0-|
A#|-----------------|-------------------------------------------------|
F |-----------------|-------------------------------------------------|
A#|-----------------|-------------------------------------------------|

D#|-------------19-----------------------|------------------------------------------|
A#|-16h17p16h17-----16h17p16h17-20-18b19-|-16h17p16h17-17br19--16h17p16----16/17-16-|
D#|--------------------------------------|------------------------------19----------|
A#|--------------------------------------|------------------------------------------|
F |--------------------------------------|------------------------------------------|
A#|--------------------------------------|------------------------------------------|
    ^
D#|------------------------|
A#|-16\13-12---------------|
D#|----------8-7b8*--------|
A#|------------------------|
F |-----------------6-5b6*-|
A#|------------------------|

D#|-------------------------|-----------------|
A#|-------------------------|-----------------|
D#|-------------------------|-----------------|
A#|-------------------4h5-4-|----4h5p1----1h3-|
F |---------5h6p5p3-x-------|-----------------|
A#|--0--0-0-----------------|--0--------0-----|

D#|---------------------------|-------------------------|
A#|---------------------------|-------------------------|
D#|---------------------------|-------------------------|
A#|---------------------4h5-4-|-------------------------|
F |-----------5h6p5p3-x-------|---------5h6p5p3-x-5h6-5-|
A#|-0--0--0-0-----------------|--0--0-0-----------------|

D#|-----------------------|---------------|-2--|
A#|-----------------------|-8--7--10---11-|-0--|
D#|-----------------------|---------------|-2--|
A#|-------------------4h5-|-8--7--10-x-11-|-0--|
F |---------5h6p5p3-x-----|----------x----|-0--|
A#|--0--0-0---------------|-8--7--10---11-|-0--|            
Submit corrections

↑ Back to top | Tablatures and chords for acoustic guitar and electric guitar, ukulele, drums are parodies/interpretations of the original songs. You may use it for private study, scholarship, research or language learning purposes only