Home » A » Alter Bridge »

Alter Bridge - Bleed It Dry Bass

Artists:  A B C D E F G H I J K L M N O P Q R S T U V W X Y Z # 

Bleed It Dry Bass

(ver. 1) Click to play this song!
Alter Bridge
[Intro]
 
    play all 4x
Gb|-----------------------------|-----------------------------|
Db|-----------------------------|-----------------------------|
Ab|-----------------------------|-----------------------------|
Eb|-----------------------------|-----------------------------|
Bb|-13-12-0---0---13-12-0---0---|-13-12-0---0---13-12-0---0---|
 
Gb|-------------------------|-------------------------|
Db|-------------------------|-------------------------|
Ab|-------------------------|-------------------------|
Eb|-------------------------|-------------------------|
Bb|-5---5---5---4-----------|-1---1---1---0-----------|
 
 
 
[PreVerse]
 
Gb|-------------------------|-------------------------|
Db|-------------------------|-------------------------|
Ab|-------------------------|-------------------------|
Eb|-------------------------|-------------------------|
Bb|-0L----------------------|-------------------------|
 
 
[Verse 1]
 
    play part 3x, then go to ending
Gb|-------------------------|-------------------------|
Db|-------------------------|-------------------------|
Ab|-------------------------|-------------------------|
Eb|-7---7---7---7---7-------|-------------------------|
Bb|-------------------------|-7---7---7---7---7-------|
 
Gb|-------------------------|-------------------------|
Db|-------------------------|-------------------------|
Ab|-------------------------|-------------------------|
Eb|-------------------------|-------------------------|
Bb|-5---5---5---5---5-------|-8---8-------8-------7---|
 
 
    Ending:
Gb|-------------------------|-------------------------|
Db|-------------------------|-------------------------|
Ab|-------------------------|-------------------------|
Eb|-7---7---7---7---7-------|-------------------------|
Bb|-------------------------|-7---7---7---7---7-------|
 
Gb|-------------------------|-------------------------|
Db|-------------------------|-------------------------|
Ab|-------------------------|-------------------------|
Eb|-------------------------|-------------------------|
Bb|-5---5---5---5---5-------|-8---7-------5-------3---|
 
 
 
[Verse Riff 2]
 
    Play 3x, then go to Ending
Gb|-------------------------|-------------------------|
Db|-------------------------|-------------------------|
Ab|-------------------------|-------------------------|
Eb|-7---7---7---7---7-------|-------------------------|
Bb|-------------------------|-7---7---7---7---7-------|
 
Gb|-------------------------|-------------------------|
Db|-------------------------|-------------------------|
Ab|-------------------------|-------------------------|
Eb|-------------------------|-------------------------|
Bb|-5---5---5---5---5-------|-8---8-------8-------7---|
 
 
    Ending:
Gb|-------------------------|-------------------------|
Db|-------------------------|-------------------------|
Ab|-------------------------|-------------------------|
Eb|-7---7---7---7---7-------|-------------------------|
Bb|-------------------------|-7---7---7---7---7-------|
 
Gb|-------------------------|-------------------------|
Db|-------------------------|-------------------------|
Ab|-------------------------|-------------------------|
Eb|-------------------------|-------------------------|
Bb|-5---5---5---5---5-------|-8\----------------------|
 
 
 
[PreChorus]
 
Gb|-------------------------|--------------------------|
Db|-------------------------|--------------------------|
Ab|-------------------------|--------------------------|
Eb|-------------------------|--------------------------|
Bb|-0L----------------------|--------------------------|
 
Gb|-------------------------|--------------------------|
Db|-------------------------|--------------------------|
Ab|-------------------------|--------------------------|
Eb|-------------------------|--------------------------|
Bb|-0L----------------------|--------------------------|
 
 
[Chorus]
 
    play 3x, then go to ending
Gb|-------------------------|-------------------------|
Db|-------------------------|-------------------------|
Ab|-------------------------|-------------------------|
Eb|-------------------------|-------------------------|
Bb|-5---5---5---4-----------|-1-------1---0-----------|
 
Gb|-----------------------------|-----------------------------|
Db|-----------------------------|-----------------------------|
Ab|-----------------------------|-----------------------------|
Eb|-----------------------------|-----------------------------|
Bb|-13-12-0---0---13-12-0---0---|-13-12-0---0---13-12-0---0---|
 
 
   Ending:
Gb|-------------------------|-------------------------|-----------|
Db|-------------------------|-------------------------|-----------|
Ab|-------------------------|-------------------------|-----------|
Eb|-------------------------|-------------------------|-----------|
Bb|-5---5---5---4-----------|-1-------1---0-----------|-0---------|
 
 
 
[Verse 2]
 
    play part 3x, then go to ending
Gb|-------------------------|-------------------------|
Db|-------------------------|-------------------------|
Ab|-------------------------|-------------------------|
Eb|-7---7---7---7---7-------|-------------------------|
Bb|-------------------------|-7---7---7---7---7-------|
 
Gb|-------------------------|-------------------------|
Db|-------------------------|-------------------------|
Ab|-------------------------|-------------------------|
Eb|-------------------------|-------------------------|
Bb|-5---5---5---5---5-------|-8---8-------8-------7---|
 
 
    Ending:
Gb|-------------------------|-------------------------|
Db|-------------------------|-------------------------|
Ab|-------------------------|-------------------------|
Eb|-7---7---7---7---7-------|-------------------------|
Bb|-------------------------|-7---7---7---7---7-------|
 
Gb|-------------------------|-------------------------|
Db|-------------------------|-------------------------|
Ab|-------------------------|-------------------------|
Eb|-------------------------|-------------------------|
Bb|-5---5---5---5---5-------|-8---7-------5-------3---|
 
 
 
[Verse 2 Riff 2]
 
    play part 3x, then go to ending
Gb|-------------------------|-------------------------|
Db|-------------------------|-------------------------|
Ab|-------------------------|-------------------------|
Eb|-7---7---7---7---7-------|-------------------------|
Bb|-------------------------|-7---7---7---7---7-------|
 
Gb|-------------------------|-------------------------|
Db|-------------------------|-------------------------|
Ab|-------------------------|-------------------------|
Eb|-------------------------|-------------------------|
Bb|-5---5---5---5---5-------|-8---8-------8-------7---|
 
 
    Ending:
Gb|-------------------------|-------------------------|
Db|-------------------------|-------------------------|
Ab|-------------------------|-------------------------|
Eb|-7---7---7---7---7-------|-------------------------|
Bb|-------------------------|-7---7---7---7---7-------|
 
Gb|-------------------------|-------------------------|
Db|-------------------------|-------------------------|
Ab|-------------------------|-------------------------|
Eb|-------------------------|-------------------------|
Bb|-5---5---5---5---5-------|-8\----------------------|
 
 
 
[PreChorus 2]
 
Gb|-------------------------|--------------------------|
Db|-------------------------|--------------------------|
Ab|-------------------------|--------------------------|
Eb|-------------------------|--------------------------|
Bb|-0L----------------------|--------------------------|
 
 
 
[Chorus 2]
 
    play 3x, then go to ending
Gb|-------------------------|-------------------------|
Db|-------------------------|-------------------------|
Ab|-------------------------|-------------------------|
Eb|-------------------------|-------------------------|
Bb|-5---5---5---4-----------|-1-------1---0-----------|
 
Gb|-----------------------------|-----------------------------|
Db|-----------------------------|-----------------------------|
Ab|-----------------------------|-----------------------------|
Eb|-----------------------------|-----------------------------|
Bb|-13-12-0---0---13-12-0---0---|-13-12-0---0---13-12-0---0---|
 
 
   Ending:
Gb|-------------------------|-------------------------|-----------|
Db|-------------------------|-------------------------|-----------|
Ab|-------------------------|-------------------------|-----------|
Eb|-------------------------|-------------------------|-----------|
Bb|-5---5---5---4-----------|-1-------1---0-----------|-0---------|
 
 
 
[Bridge]
 
Rest 8 bars, then come in:
 
Gb|-------------------------|--------------------------|
Db|-------------------------|--------------------------|
Ab|-------------------------|--------------------------|
Eb|-5h7---5h7p5-------------|--------------------------|
Bb|-------------0-----------|-(0)----------------------|
 
Gb|-------------------------|--------------------------|
Db|-------------------------|--------------------------|
Ab|-------------------------|--------------------------|
Eb|-------------------------|--------------------------|
Bb|-9-----------------------|-8------------------------|
 
Gb|-------------------------|--------------------------|
Db|-------------------------|--------------------------|
Ab|-------------------------|--------------------------|
Eb|-------------------------|--------------------------|
Bb|-0L----------------------|--------------------------|
 
Gb|-------------------------|--------------------------|
Db|-------------------------|--------------------------|
Ab|--------------------11---|-10-----------------------|
Eb|----------------11-------|-------10-----------------|
Bb|-9-----------------------|-------------8\-----------|
 
 
 
[Solo Pt 1]
 
Gb|-------------------------|--------------------------|
Db|-------------------------|--------------------------|
Ab|-------------------------|--------------------------|
Eb|-------------7-----------|-----7---7-------10-------|
Bb|-0-----------------------|-0-----0-----0--------0---|
 
Gb|-------------------------|---------------------------|
Db|-------------------------|---------------------------|
Ab|-11--------------11------|---------------------------|
Eb|--------------------11---|---------------------------|
Bb|-----------------------9-|-8--8----8---0h8--8--8h10--|
 
Gb|-------------------------|---------------------------|
Db|-------------------------|---------------------------|
Ab|-------------------------|------------4-5-5----------|
Eb|-7-7---5h7p5-------------|-7-7----5h7-------7-5-7----|
Bb|-------------0-----------|---------------------------|
 
Gb|-------------------------|--------------------------|
Db|-------------------------|--------------------------|
Ab|----------------11--11---|-10\----------------------|
Eb|------------11----11-----|--------------3--------3--|
Bb|-9-----------------------|--------------------------|
 
Gb|-------------------------|------------6-7p6----------|
Db|-------------------------|----------9-------9--------|
Ab|-------------------------|--------------------9------|
Eb|-------------------------|----------------------7-5--|
Bb|-0----------12\----------|-0-----0-------------------|
 
Gb|-------------------------|---------------------------|
Db|-------------------------|---------------------------|
Ab|-------------------------|---------------------------|
Eb|-4-------------------4---|-3----3----3----3---5---5--|
Bb|-------------------4---4-|---3----3----3--------3----|
 
Gb|-------------------------|----------------------------|
Db|-------------------------|----------------------------|
Ab|-------------------------|----------------------------|
Eb|-------------------------|----------------------------|
Bb|-0-----------------------|--------3--2--3--0----------|
 
Gb|-------------------------|--------------------------|
Db|-------------------------|--------------------------|
Ab|-------------------------|--------------------------|
Eb|-------------------------|------------------5\------|
Bb|-------------9-------9---|-8\-------3-------5\------|
 
 
 
[Solo Pt 2]
 
Gb|-------------------------|------------------------------|
Db|-------------------------|------------------------------|
Ab|-------------------------|------------------------------|
Eb|---5h7-5h7p5-------------|------------------------------|
Bb|-0-----------0-----------|-0-14p0-14-14--0-17p0-15p0-12-|
 
Gb|-------------------------|--------------------------|
Db|-------------------------|--------------------------|
Ab|-------------------------|--------------------------|
Eb|-4-4---4---4-4---4-4-4-4-|-3-3---3---3-3---3-3-3-3--|
Bb|-------------------------|--------------------------|
 
Gb|-------------------------|--------------------------|
Db|-------------------------|--------------------------|
Ab|-------------------------|-----------5-4------------|
Eb|-5h7-7-7-7-------5h7---5-|-7-----5-7-----7-5-4---5--|
Bb|-------------0-------0---|---5-7---------------5----|
 
Gb|-------------------------|----------------------------|
Db|-------------------------|----------------------------|
Ab|-------------------------|----------------------------|
Eb|-4--------4--4--4--4-----|-3---------3/15-15-15-15-15\|
Bb|-------------------------|----------------------------|
 
 
 
[Last Chorus]
 
    part 1, play 2x
Gb|-------------------------|-------------------------|
Db|-------------------------|-------------------------|
Ab|-------------------------|-------------------------|
Eb|-------------------------|-------------------------|
Bb|-5---5---5---4-----------|-1-------1---0-----------|
 
Gb|-------------------------|----------------------------|
Db|-------------------------|----------------------------|
Ab|-------------------------|----------------------------|
Eb|-------------------------|----------------------------|
Bb|-12----------------------|----------------------------|
 
 
    part 2, play 4x
Gb|-------------------------|-------------------------|
Db|-------------------------|-------------------------|
Ab|-------------------------|-------------------------|
Eb|-------------------------|-------------------------|
Bb|-5---5---5---4-----------|-1-------1---0-----------|
 
Gb|-----------------------------|-----------------------------|
Db|-----------------------------|-----------------------------|
Ab|-----------------------------|-----------------------------|
Eb|-----------------------------|-----------------------------|
Bb|-13-13-0---0---13-13-0---0---|-13-13-0---0---13-13-0---0---|
 
 
 
[Outro]
 
Gb|-------------------------|-------------------------|--------------|
Db|-------------------------|-------------------------|--------------|
Ab|-------------------------|-------------------------|--------------|
Eb|-------------------------|-------------------------|--------------|
Bb|-5---5---5---4-----------|-1-------1---0-----------|-12---0---0---|
 
Gb|-------------------------|-------------------------|--------------|
Db|-------------------------|-------------------------|--------------|
Ab|-------------------------|-------------------------|--------------|
Eb|-------------------------|-------------------------|--------------|
Bb|-5---5---5---4-----------|-1-------1---0-----------|-12---0---0---|
 
Gb|-------------------------|--------------------------|
Db|-------------------------|--------------------------|
Ab|-------------------------|--------------------------|
Eb|-------------------------|--------------------------|
Bb|-0L----------------------|--------------------------|
            
Submit corrections

↑ Back to top | Tablatures and chords for acoustic guitar and electric guitar, ukulele, drums are parodies/interpretations of the original songs. You may use it for private study, scholarship, research or language learning purposes only