Home » A » Al Stewart »

Al Stewart - Year Of The Cat Tabs

Artists:  A B C D E F G H I J K L M N O P Q R S T U V W X Y Z # 

Year Of The Cat Tabs

(ver. 2) Click to play this song!
Al Stewart
Intro:

e|-0--0--2-2--0--0---0-0-0--|x3
B|-0--0--3-3--0--0---0-0-0--|
G|-0--0--2-2--0--0---0-0-0--|
D|-2--2--0-0--2--2---2-2-2--|
A|-3--3-------2--2---2-2-2--|
E|-0--0-------0--0---0-0-0--|

e|-0--0---0--0--0--2--2--2---2--|
B|-1--1---1--1--1--1--1--1---1--|
G|-0--0---0--0--0--2--2--2---2--|
D|-2--2---2--2--2--0--0--0---0--|
A|-0--0---0--0--0---------------|
E|-0--0---0--0--0---------------|

Verse 1:

e|-0--0--2-2--0--0---0-0-0--|x3
B|-0--0--3-3--0--0---0-0-0--|
G|-0--0--4-4--0--0---0-0-0--|
D|-2--2--4-4--2--2---2-2-2--|
A|-3--3--2-2--2--2---2-2-2--|
E|-0--0-------0--0---0-0-0--|

e|-0--0---0--0--0--2--2--2---2--|
B|-1--1---1--1--1--1--1--1---1--|
G|-0--0---0--0--0--2--2--2---2--|
D|-2--2---2--2--2--0--0--0---0--|
A|-0--0---0--0--0---------------|
E|-0--0---0--0--0---------------|

e|-0--0--2-2--0--0---0-0-0--|x3
B|-0--0--3-3--0--0---0-0-0--|
G|-0--0--4-4--0--0---0-0-0--|
D|-2--2--4-4--2--2---2-2-2--|
A|-3--3--2-2--2--2---2-2-2--|
E|-0--0-------0--0---0-0-0--|

e|-0--0---0--0--0--2--2--2---2--|
B|-1--1---1--1--1--1--1--1---1--|
G|-0--0---0--0--0--2--2--2---2--|
D|-2--2---2--2--2--0--0--0---0--|
A|-0--0---0--0--0---------------|
E|-0--0---0--0--0---------------|

    ( Repeat Intro Chords )

Verse 2:

e|-0--0--2-2--0--0---0-0-0--|x3
B|-0--0--3-3--0--0---0-0-0--|
G|-0--0--4-4--0--0---0-0-0--|
D|-2--2--4-4--2--2---2-2-2--|
A|-3--3--2-2--2--2---2-2-2--|
E|-0--0-------0--0---0-0-0--|

e|-0--0---0--0--0--2--2--2---2--|
B|-1--1---1--1--1--1--1--1---1--|
G|-0--0---0--0--0--2--2--2---2--|
D|-2--2---2--2--2--0--0--0---0--|
A|-0--0---0--0--0---------------|
E|-0--0---0--0--0---------------|

e|-0--0--2-2--0--0---0-0-0--|
B|-0--0--3-3--0--0---0-0-0--|
G|-0--0--4-4--0--0---0-0-0--|
D|-2--2--4-4--2--2---2-2-2--|
A|-3--3--2-2--2--2---2-2-2--|
E|-0--0-------0--0---0-0-0--|

e|-2--2--2--2--0--0--0--0--0--|
B|-4--4--4--4--1--1--1--1--1--|
G|-4--4--4--4--0--0--0--0--0--|
D|-4--4--4--4--2--2--2--2--2--|
A|-2--2--2--2--3--3--3--3--3--|
E|----------------------------|

e|-2--2--2--2--0--0--0--0--0--|
B|-4--4--4--4--0--0--0--0--0--|
G|-4--4--4--4--0--0--0--0--0--|
D|-4--4--4--4--2--2--2--2--2--|
A|-2--2--2--2--2--2--2--2--2--|
E|-------------0--0--0--0--0--|

e|-0--0---0--0--0--2--2--2---2--|
B|-1--1---1--1--1--1--1--1---1--|
G|-0--0---0--0--0--2--2--2---2--|
D|-2--2---2--2--2--0--0--0---0--|
A|-0--0---0--0--0---------------|
E|-0--0---0--0--0---------------|

    ( Repeat Intro Chords )

Acoustic Solo:

E|--------5--7--7h8--7--5-----5h7------|-------5-----------------------|
B|--7--8-------------------8-------5---|-7--8-----8p7--8--7p5-----5----|
G|-------------------------------------|-----------------------7-----4-|
D|-------------------------------------|-------------------------------|
A|-------------------------------------|-------------------------------|
E|-------------------------------------|-------------------------------|

E|--7p5-7--5--------|-------------5------------------------------------|
B|------------8p7-8-|--7-5-5-7--8-------5\3----------------------------|
G|------------------|------------------------2-0-2-4-------------------|
D|------------------|---------------------------------2--4--5----------|
A|------------------|--------------------------------------------------|
E|------------------|--------------------------------------------------|
              
E|------------|--7----10\12--10----------------------------------------|
B|-------8--5-|--7--------------12-10---10-12-10-----------------------|
G|-4--7-------|--7-------------------------------12--12----------------|
D|------------|--------------------------------------------------------|
A|------------|--------------------------------------------------------|
E|------------|--------------------------------------------------------|

E|-4--4--5--7--8------------------|
B|----------------5--5--7h8p7-----|
G|--------------------------------|
D|--------------------------------|
A|--------------------------------|
E|--------------------------------|

Electric Guitar Solo:

E|--17-17-17--17-17-17--15-14-17-|-----------------|------10-12-14-----|
B|-------------------------------|--8-7-8-7-10-8-7-|--10-----------12--|
G|-------------------------------|-----------------|-------------------|
D|-------------------------------|-----------------|-------------------|
A|-------------------------------|-----------------|-------------------|
E|-------------------------------|-----------------|-------------------|

E|-------------------------------19---17-17-15--17\19--19-17-----------|
B|--14-15---15-14-12---16-17-19----------------------------------------|
G|---------------------------------------------------------------------|
D|---------------------------------------------------------------------|
A|---------------------------------------------------------------------|
E|---------------------------------------------------------------------|            
Submit corrections

↑ Back to top | Tablatures and chords for acoustic guitar and electric guitar, ukulele, drums are parodies/interpretations of the original songs. You may use it for private study, scholarship, research or language learning purposes only