» » »

Alphabeat - What Is Happening? Tabs

Artists:  A B C D E F G H I J K L M N O P Q R S T U V W X Y Z # 

What Is Happening? Tabs

(ver. 1) Click to play this song!
Alphabeat
 Rating:
4/5 (4 votes)

 What Is Happening? lessons Tabs too difficult? Try these video lessons and learn fast
 
                If 'Alphabeat doesn't sounds familliar to you, it's because it's an upcomming band... 
Denmark. They were very hyped in the beginning, and when the album came out (called 
At this moment they've moved to the UK where things are also doing great for them, and 
they will end up in America some day?

Here's one of their songs 'What is happening?'

/ = Slide
x = mute

[Verse 0.00]

Oh when i said: "I need you so much"
E|----------5-------------------7--------|
H|----------5-------------------9--------|
G|----------6-------------------9--------|
D|----------7-------------------9--------|
A|----------7-------------------7--------|
E|----------5-------------------7--------|

I was dead, I was alive when you were right here by my side
E|----------9-------------------7--------|
H|----------8-------------------9--------|
G|----------11------------------9--------|
D|----------11------------------9--------|
A|----------9-------------------7--------|
E|----------9-------------------7--------|

We both could see, that i needed you, you needed me
E|----------5-------------------7--------|
H|----------5-------------------9--------|
G|----------6-------------------9--------|
D|----------7-------------------9--------|
A|----------7-------------------7--------|
E|----------5-------------------7--------|

and now we both regret, regret what we've said
E|----------9-------------------7--------|
H|----------8-------------------9--------|
G|----------11------------------9--------|
D|----------11------------------9--------|
A|----------9-------------------7--------|
E|----------9-------------------7--------| x2 (with female singer)

[Bridge 0.41]

NOTE: Place your left hand so it covers all the strings! Don't press to hard, just let 
rest on them. Then use your right hand (or pick) to hit the strings like normally!

... (When we said)
 "Don't you ever come back, Don't you ever come
E|-----x---x----x------x-----x-----x--------x-|
H|-----x---x----x------x-----x-----x--------x-|
G|-----x---x----x------x-----x-----x--------x-|
D|-----x---x----x------x-----x-----x--------x-|
A|-----x---x----x------x-----x-----x--------x-|
E|-----x---x----x------x-----x-----x--------x-|
Don't you ever come back, don't you!
E|-x-----x---x----x----x---x----x------------------------|The slide-thing
H|-x-----x---x----x----x---x----x------------------------|in this part is
G|-x-----x---x----x----x---x----x------------------------|actually played
D|-x-----x---x----x----x---x----x------------------------|by the bass, but
A|-x-----x---x----x----x---x----x------------------------|it looks good and
E|-x-----x---x----x----x---x----x---1-/-13-11--9--7------|gives some variation

[Chorous 0.51]

Don't go out tonight, baby can't you see
E|------------5-----------------------9-------|
H|------------5-----------------------8-------|
G|------------6-----------------------11------|
D|------------7-----------------------11------|
A|------------7-----------------------9-------|
E|------------5-----------------------9-------|

What is happening to you, what is happening
E|------------7-----------------------5---------|
H|------------9-----------------------7---------|
G|------------9-----------------------7---------|
D|------------9-----------------------7---------|
A|------------7-----------------------5---------|
E|------------7-----------------------5---------|x2

[Verse 1.31]

So who's fault is it, anyway, don't say
we don't know we both know that we made a mistake
it's hard to live together, forever, well that's what they say
we still regret when we said, what we said
^ x2

[Bridge 1.55]

Don't you ever come back
Don't you ever come
Don't you ever come back
Don't you

[Chorous 2.05]

Don't go out tonight, baby can't you see
What has happened to you, what is happening
Don't go out tonight, baby can't you see
what has happened to you, what is happening

[Bridge v2 2.29]

E|------5------5-------5-------5--------|
H|------5------5-------5-------5--------|
G|------6------6-------6-------6--------|
D|------7------7-------7-------7--------|
A|------7------7-------7-------7--------|
E|------5------5-------5-------5--------| x1

Wuuuuuuuuuuuuu-uuiiiiiiiii-uuuuuuuuuuh
E|------5------9-------7-------5--------|
H|------5------8-------9-------7--------|
G|------6------11------9-------7--------|
D|------7------11------9-------7--------|
A|------7------9-------7-------5--------|
E|------5------9-------7-------5--------|x2

Wuuuuuuuuuuuuu-uuiiiiiiiii-uuuuuuuuuuh
(Oh when i said "I need you so much"..
E|------5------9-------7-------5--------|
H|------5------8-------9-------7--------|
G|------6------11------9-------7--------|
D|------7------11------9-------7--------|
A|------7------9-------7-------5--------|
E|------5------9-------7-------5--------| x 7

In specially the last part of the song, the band decided really to put some deep 
in the lyrics... Bum tisch!
Anyway, the last part continues until the song ends.
It's easy to play, just give it some time! Hope you enjoyed, download it on iTunes, buy 
Chill!

- TheKermal
            
Submit corrections


        What Is Happening? lessons Hard to play? Try these video lessons and learn fast What Is Happening? lessons
        
↑ Back to top | Tablatures and chords for acoustic guitar and electric guitar, ukulele, drums are parodies/interpretations of the original songs. You may use it for private study, scholarship, research or language learning purposes only