» » »

Alphabeat - Fascination Tabs

Artists:  A B C D E F G H I J K L M N O P Q R S T U V W X Y Z # 

Fascination Tabs

(ver. 1) Click to play this song!
Alphabeat
 Rating:
4/5 (14 votes)

 Fascination lessons Tabs too difficult? Try these video lessons and learn fast
 
                Tuning : Standard (EADGBe)

Intro: just strum muted notes.

e|-x-xx-xx----x-x-x--| x2
B|-x-xx-xx----x-x-x--|
G|-x-xx-xx----x-x-x--|
D|-x-xx-xx----x-x-x--|
A|-x-xx-xx----x-x-x--|
E|-x-xx-xx----x-x-x--|

Verse 1:

A    A 
Easy living,
           F#    E
Killed the young dudes,
       D
In the high boots
A
Teenage,
       A
In the pace age,
            F#   E
That's when love burns,
         D
Now it's your turn.


Pre-Chorus:

e|------------------          E|--------------------|
B|------------------          B|--------------------|
G|--7--7------------          G|-----------99999999-|
D|--7--7------7--4--          D|--99999999-99999999-|
A|--4--5------7--4--          A|--99999999-77777777-|
E|------------4--2--          E|--77777777----------|
Fascination, Fascination      It's just the way we feel.


then:

e|------------------          E|----------------------|
B|------------------          B|----------------------|
G|--7--7------------          G|-----------9999977777-|
D|--7--7------7--4--          D|--99999999-9999977777-|
A|--4--5------7--4--          A|--99999999-7777755555-|
E|------------4--2--          E|--77777777------------|
Fascination, Fascination      It's just the way we feel.



Chorus:
E                        F#        D
  We love this exaltation (woh oh, o-o-oh)
E                            F#        D
  We want the new temptations (woh oh, o-o-o-oh)
E                       F#        D          E
  It's like a revelation (woh oh, o-o-oh)
(N.C)
  We live on fascination.


Verse 2:

A
Passion,
       A
Is our passion,
       F#m E
In the moonlight,
     D
On a joyride
A    A
Easy living,
           F#m   E
Killed the young dudes,
       D
In the high boots. (oh yeah)


Pre-Chorus:

e|------------------          E|----------------------|
B|------------------          B|----------------------|
G|--7--7------------          G|-----------9999977777-|
D|--7--7------7--4--          D|--99999999-9999977777-|
A|--4--5------7--4--          A|--99999999-7777755555-|
E|------------4--2--          E|--77777777------------|
Fascination, Fascination      It's just the way we feel.



Chorus:
E                        F#        D
  We love this exaltation (woh oh, o-o-oh)
E                            F#        D
  We want the new temptations (woh oh, o-o-o-oh)
E                       F#        D          E
  It's like a revelation (woh oh, o-o-oh)
(N.C)
  We live on fascination.



Breakdown:
e|------------------|
B|------------------|
G|------------------|
D|--7777-7-7-77-----|  x8
A|--xxxx-x-x-xx-----| 
E|--5555-5-5-55-----|

"The words is on your lips - say the word"

THEN: (around 2:11)

e|-------------------|        e|-------------------|
B|-------------------|        B|-------------------|
G|-------------------|        G|-------------------|
D|---9-7--9-9-7-9-7--|  x2    D|-0-9-7--9-9-7-9-7--| x2
A|-0-----------------|        A|-------------------|
E|-------------------|        E|-------------------|
"The words is on your lips - say the word    Fas-ci-na-tion!"



E (N.C.)                  F#        D
   We love this exaltation (woh oh, o-o-o-oh)
E                           F#       D
 We want the new temptations (woh oh, o-o-o-oh)
E                        F#      D
 It's like a revelation (woh oh, o-o-o-oh)
E                  F#m    D                    
 We live on fascination (o-oh).


just keep playing    E, F#, D.


and finish with:

e|-0----0----|
B|-0----0----|
G|-1----1----|
D|-2----2-4--|
A|-2----2-4--|
E|-0----0-2--|



A: x0222x
E: 022100
F#:244xxx
D: xx0232


Hope you liked it.
            
Submit corrections


        Fascination lessons Hard to play? Try these video lessons and learn fast Fascination lessons
        
↑ Back to top | Tablatures and chords for acoustic guitar and electric guitar, ukulele, drums are parodies/interpretations of the original songs. You may use it for private study, scholarship, research or language learning purposes only