» » »

All That Remains - We Stand Bass

Artists:  A B C D E F G H I J K L M N O P Q R S T U V W X Y Z # 

We Stand Bass

(ver. 1) Click to play this song!
All That Remains
 Rating:
4/5 (4 votes)

 We Stand lessons Tabs too difficult? Try these video lessons and learn fast
 
                So I saw there was no tab for this song so I learned it off of the guitar tabs and 

Intro
|------------------------------------------------------54------|
|--------------------------------------------------------75----|
|000-----------000-----------000000-------000------000-----8-7-|
|--------------------------------------------------------------|

|-----------------------------------------------------------------|
|-----------------------------------------------------------------|
|000-----------000-----------000000------005h7--00--3h5---0-2h3-2-|
|-----------------------------------------------------------------|

Verse 1
|------------------------------------------------------54------|
|--------------------------------------------------------75----|
|000-----------000-----------000000-------000------000-----8-7-|
|--------------------------------------------------------------|


|---------------------------------------------------------------------|
|---------------------------------------------------------------------|
|000-----------000-----------000000------005h7--00--3h5----5-3-2------|
|---------------------------------------------------------------------|

|------------------------------------------------------------------|
|------------------------------------------------------------------|
|-----9--7-10------7-9-10------10--9-12------9-10-12-------9--7-10-|
|0000----------000--------0000-----------000----------0000---------|

|--------------------------------------|
|--------------------------------------|
|----7-9-10------3--5p3-----0h2-2h3p2--|
|000-----------00------0--00-----------| 

Chorus 1
|-------------------|
|------------7----7-|
|000-00-0~--0----0--|
|-------------------| x3

|-------------------|
|-------------------|
|-0h2p0-------------|
|-------3~--11~---0~|

Verse 2
|------------------------------------------------------------------|
|------------------------------------------------------------------|
|-----9--7-10------7-9-10------10--9-12------9-10-12-------9--7-10-|
|0000----------000--------0000-----------000----------0000---------|

|--------------------------------------|
|--------------------------------------|
|----7-9-10------3--5p3-----0h2-2h3p2--|
|000-----------00------0--00-----------| x3

|------------------------------------------------------54------|
|--------------------------------------------------------75----|
|000-----------000-----------000000-------000------000-----8-7-|
|--------------------------------------------------------------|


|---------------------------------------------------------------------|
|---------------------------------------------------------------------|
|000-----------000-----------000000------005h7--00--3h5----5-3-2------|
|---------------------------------------------------------------------|

Chorus 2
|-------------------|     
|------------7----7-|
|000-00-0~--0----0--|
|-------------------| x3

|-------------------|
|-------------------|
|-0h2p0-------------|
|-------3~--11~---0~| repeat Chorus again

Bridge/Solo
|---------------------------------------|     |-------|
|---------------------------------------|     |-------|
|---------------------------------------|     |-------|
|000---------000--------000---------000-| x2  |010/---|

|--------------------------7-5-7---|
|----10910-7-----10-9-10-7-------9-|
|000---------000-------------------|
|----------------------------------|

|-------------------------------9-|
|----10910-7-----9p7-9-10-9p7-9---|
|000---------000------------------|
|---------------------------------|

|--------------------------7-5-7---|
|----10910-7-----10-9-10-7-------9-|
|000---------000-------------------|
|----------------------------------|

|-------------------------------------|
|----10910-7--------------------------|
|000----------000-0000000000000000000~|
|-------------------------------------|

|------------------------------|
|------------------------------|
|0-00-0--0-00-0----------------|
|---------------1-11-1--1-11-1-| x2   not the correct ryhtem

|-----------------------------|---------------------------------|
|-----------------------------|----------------5-5-5-5-5-5-5-5--|
|--------------3-33-3--3-33-3-|2-22-2--2-22-2---3-3-3-3-3-3-3-3-|
|0-00-0-0-00-0----------------|---------------------------------|

|-------------------------------|
|-------------------------------|
|0-00-0--0-00-0-----------------|
|----------------1-11-1--1-11-1-|

|---------------------------------------|
|---------------------------------------|
|0-00-0--0-00-0--------------2-3-2------|
|----------------1-11-1--1~--------3-5/-|

|---------------------------------------| 
|---------------------------------------|     
|---------------------------------------|     
|000---------000--------000---------000-| x2



|--------------------------7-5-7---|
|----10910-7-----10-9-10-7-------9-|
|000---------000-------------------|
|----------------------------------|

|-------------------------------9-|
|----10910-7-----9p7-9-10-9p7-9---|
|000---------000------------------|
|---------------------------------|

|--------------------------7-5-7---|
|----10910-7-----10-9-10-7-------9-|
|000---------000-------------------|
|----------------------------------|

|--------------------------|
|----10910-7---------------|
|000----------000-000--3-2~|
|--------------------------|


Chorus 3
|-------------------|       |-------------|     play this second
|------------7----7-|       |--77--77--77-|     time through the
|000-00-0~--0----0--|       |0----0---0---|     chorus instead of 
|-------------------| x3    |-------------|     original octave rhytem
   
|-------------------|
|-------------------|
|-0h2p0-------------|
|-------3~--11~---0~|  second time, slow the end and end on an open G.
            
Submit corrections


        We Stand lessons Hard to play? Try these video lessons and learn fast We Stand lessons
        
↑ Back to top | Tablatures and chords for acoustic guitar and electric guitar, ukulele, drums are parodies/interpretations of the original songs. You may use it for private study, scholarship, research or language learning purposes only