» » »

All That Remains - The Air That I Breathe Tabs

Artists:  A B C D E F G H I J K L M N O P Q R S T U V W X Y Z # 

The Air That I Breathe Tabs

(ver. 1) Click to play this song!
All That Remains
 Rating:
3.4/5 (28 votes)

 The Air That I Breathe  lessons Tabs too difficult? Try these video lessons and learn fast
 
                Intro:
D|--19^--19~~~-|
G|-------------|
C|-------------|
F|-------------|
A|-------------|
D|-------------|

Climb Down p1:
D|--16--21--16--19--16----16------------------------------------|
G|---------------------19-----21--17--19--17--16--17--16--------|
C|------------------------------------------------------18--17--|
F|--------------------------------------------------------------|
A|--------------------------------------------------------------|
D|--------------------------------------------------------------|

Climb Down p2:
D|------------------------------|
G|--19^-17--16--17--16----------|
C|----------------------18--17--|
F|------------------------------|
A|------------------------------|
D|------------------------------|

Climb Down p3:
D|------------------------------|
G|--17^-16--14--16--14----------|
C|----------------------16--14--|
F|------------------------------|
A|------------------------------|
D|------------------------------|

Wind out (Play 4 times):
                        End with:
D|------13------13--|--------------|
G|--15^-----17------|--14^-14^-----|
C|------------------|----------13--|
F|------------------|--------------|
A|------------------|--------------|
D|------------------|--------------|


Slow Down:
D|--------------------------------------|---------------------|
G|-------14-----------14--------12------|---------------------|
C|--9-11------11^^11-----11-9------9-8--|-9-8-----------------|
F|--------------------------------------|-----9---------------|
A|--------------------------------------|-------11---7-9-11---|
D|--------------------------------------|---------------------|

Climb Up:
D|------------------------tap------------|
G|---------------------7^^10^^7--5-7~~~~-|
C|-----------------9---------------------|
F|-------9----9-11-----------------------|
A|--9-11---------------------------------|
D|---------------------------------------|


Wind Down:
D|----------------------------------------|
G|------------9~~~10-7~~~9-5~~~-----------|
C|-----8-9-11------------------11-8~~~----|
F|--11------------------------------------|
A|----------------------------------------|
D|----------------------------------------|

Legato Climb Down: (I slowed down this part to 10% normal speed to get these numbers)
D|-------------------------------------------------------------------|
B|-------------------------------------------------------------------|
C|--8--9--11--8------------------------------------------------------|
F|---------------9--7--6--7--9--6--7--6-----------------6~~~~7-------|
A|---------------------------------------9--7--6--7--9---------9~~~~-|
D|-------------------------------------------------------------------|


The Climb (notice the pattern):
D|------------------------------------------------------------------------9---------12--11~~--|
G|---------------------------------------------------9---------12-----------------------------|
C|------------------------------9---------11-----------------------9--11-----11--9------------|
F|---------9---------11-----------------------9--11-----11--9---------------------------------|
A|-----------------------9--11-----11--9------------------------------------------------------|
D|--9--12-----12--9---------------------------------------------------------------------------|

Pre-end:
D|--9h12h13-9-----9-------------------------------------|
G|------------12-----12--9-------------12---------------|
C|--------------------------11--10--9------9--9pinch~~--|
F|------------------------------------------------------|
A|------------------------------------------------------|
D|------------------------------------------------------|

End:
D|-------------9--12--8-----------------------------|
G|---------11------------10-------------------------|
C|--9--12--------------------11--8------------------|
F|----------------------------------10--7-----------|
A|-----------------------------------------9--6-----|
D|-----------------------------------------------9--|            
Submit corrections


        The Air That I Breathe  lessons Hard to play? Try these video lessons and learn fast The Air That I Breathe  lessons
        
↑ Back to top | Tablatures and chords for acoustic guitar and electric guitar, ukulele, drums are parodies/interpretations of the original songs. You may use it for private study, scholarship, research or language learning purposes only