» » »

All That Remains - Keepers Of Fellow Man Tabs

Artists:  A B C D E F G H I J K L M N O P Q R S T U V W X Y Z # 

Keepers Of Fellow Man Tabs

(ver. 1) Click to play this song!
All That Remains
 Rating:
4/5 (4 votes)

 Keepers Of Fellow Man lessons Tabs too difficult? Try these video lessons and learn fast
 
                All that Remains!
Tuning: C# F# B E G# C#


(Intro 0:00-0:21)
Guitar#1
C#|-----------------------------------------------|
G#|-------------12-10------------12-10------------|
E |--------12-9-------9--------9-------9-12-9-----|
B |-----10----------------------------------------|
F#|-----------------------------------------------|
C#|-----------------------------------------------|

Guitar#2
C#|-----------------------------------------------|
G#|-----------------------------------------------|
E |-----------------------------------------------|
B |-----------------------------------------------|
F#|--7--------------------10----------------------|
C#|--5--------------------8-----------------------|


C#|-------------------------------------------------------------------------|
G#|-------------------------------------------------------------------------|
E |-------------------------------------------------------------------------|
B |-------------------------------------------------------------------------|
F#|-------------------------------------------------------------------------|
C#|-555-555-555-5-55555-5-5----------555-555-555-5-5555555-5----------------|


C#|-------------------------------------------------------------------------|
G#|-------------------------------------------------------------------------|
E |-------------------------------------------------------------------------|
B |-------------------------------------------------------------------------|
F#|-------------------------------------------------------------------------|
C#|-111-111-111-1-11111-1-1----------111-111-111-1-1111111-1----------------|


(0:21-0:32)
C#|-------------------------------------------------------------------------|
G#|-------------------------------------------------------------------------|
E |-------9--7------------9//s--7//s----------------------------------------|
B |----9--7--5--10--9-----------------7//s--9//s----------------------------|
F#|-7--7--------8---7-------------------------------------------------------|
C#|-5-----------------------------------------------12>>--------------------|


CHORUS (0:33-1:04)
C#|-------------------------------------------------------------------------|
G#|-------------------------------------------------------------------------|
E |------16//(17)--16-14----------------------------------------------------|
B |----------------------14-12-12h14--14//(15)--14-12-----------------------|
F#|-7-------------------------------------------------14-15-12--------------|
C#|-5-----------------------------------------------------------------------|


C#|---------------------------------|
G#|---------------------------------|
E |---------------------------------|
B |-17--15--14------17--15--14------|
F#|-------------12------------------|
C#|---------------------------------|



(1:05-1:15)
C#|-------------------------------------------------------------------------|
G#|-------------------------------------------------------------------------|
E |-------------------------------------------------------------------------|
B |-------------------------------------------------------------------------|
F#|-------------------------------------------------------------------------|
C#|-555-555-555-5-55555-5-5----------555-555-555-5-5555555-5----------------|


C#|-------------------------------------------------------------------------|
G#|-------------------------------------------------------------------------|
E |-------------------------------------------------------------------------|
B |-------------------------------------------------------------------------|
F#|-------------------------------------------------------------------------|
C#|-111-111-111-1-11111-1-1----------111-111-111-1-1111111-1----------------|


(1:16-1:26)
C#|-------------------------------------------------------------------------|
G#|-------------------------------------------------------------------------|
E |-------9--7------------9//s--7//s----------------------------------------|
B |----9--7--5--10--9-----------------7//s--9//s----------------------------|
F#|-7--7--------8---7-------------------------------------------------------|
C#|-5-----------------------------------------------12>>--------------------|

CHORUS (1:27-2:10)
C#|-------------------------------------------------------------------------|
G#|-------------------------------------------------------------------------|
E |------16//(17)--16-14----------------------------------------------------|
B |----------------------14-12-12h14--14//(15)--14-12-----------------------|
F#|-7-------------------------------------------------14-15-----------------|
C#|-5-----------------------------------------------------------------------|


C#|-------------------------------------------------------------------------|
G#|-------------------------------------------------------------------------|
E |----16//(17)--16-14------------------------------------------------------|
B |--------------------14-12-12h14--14//(15)--14-12-------------------------|
F#|-15----------------------------------------------14-15-12----------------|
C#|-------------------------------------------------------------------------|


C#|-------------|P|-----------------------|
G#|-------------|A|-----------------------|
E |-------------|U|-----------------------|
B |-17--15--14--|S|------17--15--14-------|
F#|-------------|E|--12-------------------|
C#|-------------|!|-----------------------|


Working on solo. Will be posted when finished.
            
Submit corrections


        Keepers Of Fellow Man lessons Hard to play? Try these video lessons and learn fast Keepers Of Fellow Man lessons
        
↑ Back to top | Tablatures and chords for acoustic guitar and electric guitar, ukulele, drums are parodies/interpretations of the original songs. You may use it for private study, scholarship, research or language learning purposes only