» » »

All That Remains - From The Outside Tabs

Artists:  A B C D E F G H I J K L M N O P Q R S T U V W X Y Z # 

From The Outside Tabs

(ver. 1) Click to play this song!
All That Remains
 Rating:
4/5 (4 votes)

 From The Outside lessons Tabs too difficult? Try these video lessons and learn fast
 
                All that Remains!
Tuning: Drop C# [ C# G# C# F# A# D# ]

!===================!
|   ~ = hold note   |
|   h = hammer on   |
|   p = pull off    |
|   >>> = slide     |
!===================!


<--!*PLEASE RATE*!-->


(Intro 0:00-0:15)
D#|---------------------|
A#|---------------------|
F#|-10~---7~---9~~~~~~--|          *(X2)*
C#|-10~---7~---9~~~~~~--|
G#|--8~---5~---7~~~~~~--|
C#|--8~---5~---7~~~~~~--|


D#|-----------------------------------------------|
A#|-----------------------------------------------|
F#|-----------------------------------------------|
C#|-----------------------------------------------|
G#|-----------------------------------------------|
C#|-77777--77777-7--77777--77777--77777-7--77777--|


D#|-----------------------------------------------|
A#|-----------------------------------------------|
F#|-----------------------------------------------|
C#|-----------------------------------------------|
G#|-----------------------------------------------|
C#|-33333--33333-3--33333--22222--22222-2--22222--|

=============================================================================

(BRIDGE 0:15-0:35)                                                    
D#|--------------------------------------------------|    
A#|--------------------------------------------------|    
F#|-------5~~--4~~--7~~--------9~~--7~~--9~~---------|          *(X2)*
C#|-------7~~--7~~--7~~--10~~--7~~--7~~--9~~--10--9--|    
G#|-7~~-------------------8~~-----------------10--9--|    
C#|-7~~----------------------------------------------|

=============================================================================

(CHORUS 0:36-0:45)
D#|-------------------------------------------------------|
A#|-------------------------------------------------------|
F#|------------------------------------------7------------|
C#|---------------10---9------------------------10---7h9--|
G#|-7----------------------10--7--------------------------|
C#|-7-7-7-7-7-7-7----7---7-----7-7-7-7-7-7-7--7----7------|


D#|-------------------------------------|
A#|----------10~~~~-------------10~~~~--|
F#|------7-9----9~~---------7-9----9~~--|          *(X2)*
C#|-7-10---------------7-10-------------|
G#|-------------------------------------|
C#|-------------------------------------|


D#|--------------------------------------------------------|
A#|--------------------------------------------------------|
F#|-------------------------------------------7------------|
C#|---------------10---9-------------------------10---7h9--|
G#|-7----------------------10--7---------------------------|
C#|-7-7-7-7-7-7-7----7---7-----7-7-7-7-7-7-7---7----7------|


D#|-------------------------------------|
A#|----------10~~~~-------------10~~~~--|
F#|------7-9----9~~---------7-9----9~~--|          *(X2)*
C#|-7-10---------------7-10-------------|
G#|-------------------------------------|
C#|-------------------------------------|

=============================================================================

(BRIDGE-2 0:56-1:16)
D#|--------------------(TENS)----------------------------------------|
A#|---------------------\--/-----------------------------------------|
F#|----------------------\/----------------------------777777777777--|
C#|-777777777777-101010101010101010101010-999999999999---------------|
G#|------------------------------------------------------------------|
C#|------------------------------------------------------------------|


D#|-----------------------------|
A#|-----------------------------|
F#|-------9~~--7~~--9~~---------|
C#|-10~~--7~~--7~~--9~~--10--9--|
G#|--8~~-----------------10--9--|
C#|-----------------------------|


D#|--------------------(TENS)----------------------------------------|
A#|---------------------\--/-----------------------------------------|
F#|----------------------\/----------------------------777777777777--|
C#|-777777777777-101010101010101010101010-999999999999---------------|
G#|------------------------------------------------------------------|
C#|------------------------------------------------------------------|


D#|-----------------------------|
A#|-----------------------------|
F#|-------9~~--7~~--9~~---------|
C#|-10~~--7~~--7~~--9~~--10--9--|
G#|--8~~-----------------10--9--|
C#|-----------------------------|

=============================================================================

(CHORUS 1:16-1:36)
D#|--------------------------------------------------------|
A#|--------------------------------------------------------|
F#|-------------------------------------------7------------|
C#|---------------10---9-------------------------10---7h9--|
G#|-7----------------------10--7---------------------------|
C#|-7-7-7-7-7-7-7----7---7-----7-7-7-7-7-7-7---7----7------|


D#|-------------------------------------|
A#|----------10~~~~-------------10~~~~--|
F#|------7-9----9~~---------7-9----9~~--|          *(X2)*
C#|-7-10---------------7-10-------------|
G#|-------------------------------------|
C#|-------------------------------------|


D#|--------------------------------------------------------|
A#|--------------------------------------------------------|
F#|-------------------------------------------7------------|
C#|---------------10---9-------------------------10---7h9--|
G#|-7----------------------10--7---------------------------|
C#|-7-7-7-7-7-7-7----7---7-----7-7-7-7-7-7-7---7----7------|


D#|-------------------------------------|
A#|----------10~~~~-------------10~~~~--|
F#|------7-9----9~~---------7-9----9~~--| 
C#|-7-10---------------7-10-------------|
G#|-------------------------------------|
C#|-------------------------------------|

D#|---------------------------------------------|
A#|----------10~~~~-----------------10~~~~------|
F#|------7-9----9~~-7-9---------7-9----9~~-7-9--| 
C#|-7-10-------------------7-10-----------------|
G#|---------------------------------------------|
C#|---------------------------------------------|

=============================================================================

(PRE-SOLO 1:37-1:57)
D#|----------------------------------------------------------------|
A#|----------------------------------------------------------------|
F#|--------------9-7~~---------------------------------------------|
C#|-----10-9------------------10-9-----5-7~~--------7-5-----7-5~~--|
G#|-----------------------8-8--------8----------5-5-------5--------|
C#|-7-7--------7---------------------------------------------------|


D#|-------------------------------------|
A#|----------10~~~~-------------10>>>>--|
F#|------7-9----9~~---------------------|
C#|-7-10-------------7-7---7-7----------|
G#|-------------------------------------|
C#|-------------------------------------|


D#|----------------------------------------------------------------|
A#|----------------------------------------------------------------|
F#|--------------9-7~~---------------------------------------------|
C#|-----10-9------------------10-9-----5-7~~--------7-5-----7-5~~--|
G#|-----------------------8-8--------8----------5-5-------5--------|
C#|-7-7--------7---------------------------------------------------|


D#|-------------------------------------|
A#|----------10~~~~-------------10>>>>--|
F#|------7-9----9~~---------------------|
C#|-7-10-------------7-7---7-7----------|
G#|-------------------------------------|
C#|-------------------------------------|


Working on solo, haven't got it all down yet, will update when complete!
            
Submit corrections


        From The Outside lessons Hard to play? Try these video lessons and learn fast From The Outside lessons
        
↑ Back to top | Tablatures and chords for acoustic guitar and electric guitar, ukulele, drums are parodies/interpretations of the original songs. You may use it for private study, scholarship, research or language learning purposes only