» » »

All That Remains - A Reason For Me To Fight Tabs

Artists:  A B C D E F G H I J K L M N O P Q R S T U V W X Y Z # 

A Reason For Me To Fight Tabs

(ver. 1) Click to play this song!
All That Remains
 Rating:
2.2/5 (30 votes)

 A Reason For Me To Fight  lessons Tabs too difficult? Try these video lessons and learn fast
 
                Tuning:drop c#
       
 pre solo
         - - - - - - - -    

D#|12b13----------------13br12-12~-----15---13-12-13-12-----------------------|
A#|------------------------------------------------------15/------3-5-6-8-----|
F#|---------------------------------------------------------------------------|
c#|---------------------------------------------------------------------------|
G#|---------------------------------------------------------------------------|
C#|---------------------------------------------------------------------------|
          pm-          pm-
D#|---------------------------------------------------------------------------|
A#|---------------------------------------------------------------------------|
F#|9/10p9------9/10p9------14-14-14-14-14-14-14-14----------------------------|
c#|-------0-0----------0-0----------------------------------------------------|
G#|---------------------------------------------------------------------------|
C#|---------------------------------------------------------------------------|
  solo                            pm ..    .     .. ..        p.h.
D#|---------------------------------------------------------------------------|
A#|13-------------------------------------------------------------------------|
F#|---14-14h17/12--pb14rb12--12~--------10----12-------10p9-7-7~--------------|
c#|-------------------------------10-10----10----10-10------------------------|
G#|---------------------------------------------------------------------------|
C#|---------------------------------------------------------------------------|

D#|---------------------------------------------------------------------------|
A#|---------------------------------------------------------------------------|
F#|14-10----12-10----9h10-15-12----14-12----10h12-17~~~-----------------------|
c#|------12-------12------------14-------14-----------------------------------|
G#|---------------------------------------------------------------------------|
C#|---------------------------------------------------------------------------|

D#|---------------------------------------------------------------------------|
A#|---------------------------------------------------------------------------|
F#|---------------------------------------------------------------------------|
c#|---------------------------------------------------14-15-17-19-17-15-14----|
G#|---------------------------------12-13-15-13-12-17-------------------------|
C#|17-15-12-14-15-17-15-14-12-14-15-------------------------------------------|
     
D#|-------------------------/18-17-15-----------------------------------------|
A#|---------14-15-17-15-14~-----------15----13----11----10-----3-6-5-3/5-8-6--|
F#|12-14-15---------------------------17b19-15b17-13b15-12b14-----------------|
c#|---------------------------------------------------------------------------|
G#|---------------------------------------------------------------------------|
C#|---------------------------------------------------------------------------|

D#|-------------------------10-8-6-5-8-5-6-8-10-6-8-10-12-8-10-12-13-12-10----|
A#|3-6-5-3/5-8-6-5/6-10-8-6------------------------------------------------13-|
F#|---------------------------------------------------------------------------|
c#|---------------------------------------------------------------------------|
G#|---------------------------------------------------------------------------|
C#|---------------------------------------------------------------------------|
                    (whammy)
D#|10~------13-12-10-22~------------------------------------------------------|
A#|---------------------------------------------------------------------------|
F#|---------------------------------------------------------------------------|
c#|---------------------------------------------------------------------------|
G#|---------------------------------------------------------------------------|
C#|---------------------------------------------------------------------------|            
Submit corrections


        A Reason For Me To Fight  lessons Hard to play? Try these video lessons and learn fast A Reason For Me To Fight  lessons
        
↑ Back to top | Tablatures and chords for acoustic guitar and electric guitar, ukulele, drums are parodies/interpretations of the original songs. You may use it for private study, scholarship, research or language learning purposes only