Home » A » Allison Weiss »

Allison Weiss - One Way Love Bass

Artists:  A B C D E F G H I J K L M N O P Q R S T U V W X Y Z # 

One Way Love Bass

(Version #1)
Allison Weiss
- Intro: 

G|-----------------|-----------------|-----------------|-------------------|
D|-----------------|-----------------|-----------------|-------------------|
A|----5-5-5-5-5----|-----------------|-----------------|------5-5-5-5-5----|
E|-----------------|----3-3-3-3-3----|----3-3-0-3-3--5-|-5-5---------------|  x2


- Verse 1: 
(I wanna a one way love...)

G|-----------------|-----------------|-----------------|-----------------|
D|-----------------|-----------------|-----------------|-----------------|
A|-0-5r------------|-----------------|-----------------|-----------------|
E|-----------------|-----------------|-----------------|-----------------|



(I wanna a one way love...)

G|-----------------|-----------------|-----------------|-------------------|
D|-----------------|-----------------|-----------------|-------------------|
A|----5-5-5-5-5----|-----------------|-----------------|------5-5-5-5-5----|
E|-----------------|----3-3-3-3-3----|----3-3-0-3-3----|-5-5---------------|  x2




- Chorus:
(Yeaaaaahhh....)

G|-----------------|-----------------|-----------------|-------------------|
D|-----------------|-----------------|-----------------|-------------------|
A|----5-5-5-5-5----|-----------------|-----------------|------5-5-5-5-5----|
E|-----------------|----3-3-3-3-3----|----3-3-0-3-3----|-5-5---------------|  x2




- Verse 2:
(I wanna a one way love...)

G|-----------------|-----------------|-----------------|-------------------|
D|-----------------|-----------------|-----------------|-------------------|
A|----5-5-5-5-5----|-----------------|-----------------|------5-5-5-5-5----|
E|-----------------|----3-3-3-3-3----|----3-3-0-3-3----|-5-5---------------|  x2



(I wanna a one way love...)

G|-----------------|-----------------|-----------------|-------------------|
D|-----------------|-----------------|-----------------|-------------------|
A|----5-5-5-5-5----|-----------------|-----------------|------5-5-5-5-5----|
E|-----------------|----3-3-3-3-3----|----3-3-0-3-3----|-5-5---------------|  x2




- Chorus:
(Yeaaaaahhh....)

G|-----------------|-----------------|-----------------|-------------------|
D|-----------------|-----------------|-----------------|-------------------|
A|----5-5-5-5-5----|-----------------|-----------------|------5-5-5-5-5----|
E|-----------------|----3-3-3-3-3----|----3-3-0-3-3----|-5-5---------------|  x4

G|-----------------|
D|-----------------|
A|-5-5-5-5-5-5-5---|
E|---------------3-|




- Bridge:
(Everybody leaves, and everybody needs...)

G|-----------------|-----------------|-----------------|-------------------|
D|-----------------|-----------------|-----------------|-------------------|
A|-----------------|-5-5-5-5-5-5-5-5-|-----------------|-------------------|
E|-----3r----------|-----------------|-0-3-3-3-3-3-3-3-|-5-5-5-5-5-5-5-5-5-|  

G|-----------------|-----------------|-----------------|-------------------|
D|-----------------|-----------------|-----------------|-------------------|
A|-----------------|-0-5-5-5-5-5-5-5-|-----------------|-------------------|
E|-0-3-3-3-3-3-3-3-|-----------------|-0-3-3-3-3-3-3-3-|-5-5-5-5-5-5-5-5-5-|  




- Chorus:
(I wanna a one way love...)


G|-----------------|-----------------|-----------------|-------------------|
D|-----------------|-----------------|-----------------|-------------------|
A|-------5r--------|-----------------|-----------------|------5-5-5-5-5----|
E|-----------------|-----------------|------3-3-3------|-5-5---------------|  

G|-----------------|-----------------|-----------------|-------------------|
D|-----------------|-----------------|-----------------|-------------------|
A|----5-5-5-5-5----|-----------------|-----------------|------5-5-5-5-5----|
E|-----------------|----3-3-3-3-3----|----3-3-0-3-3----|-5-5---------------|  




- Chorus:
(Yeaaaaahhh....)

G|-----------------|-----------------|-----------------|-------------------|
D|-----------------|-----------------|-----------------|-------------------|
A|----5-5-5-5-5----|-----------------|-----------------|------5-5-5-5-5----|
E|-----------------|----3-3-3-3-3----|----3-3-0-3-3----|-5-5---------------|  x3

G|-----------------|-----------------|-----------------|-------------------|
D|-----------------|-----------------|-----------------|-------------------|
A|----5-5-5-5-5----|----5-5-5-5-5----|----5-5-5-5-5----|------5-5-5-5-5----|
E|-----------------|-----------------|-----------------|-------------------|  

            
Submit corrections

↑ Back to top | Tablatures and chords for acoustic guitar and electric guitar, ukulele, drums are parodies/interpretations of the original songs. You may use it for private study, scholarship, research or language learning purposes only