Home » A » Allison Weiss »

Allison Weiss - Nothing Left Bass

Artists:  A B C D E F G H I J K L M N O P Q R S T U V W X Y Z # 

Nothing Left Bass

(Version #1)
Allison Weiss

- Intro/Verse 1:

G|-------------|
D|-------------|
A|- No Bass ---|
E|-------------|



- Pre-Chorus:
(Stand closer, I get nervous...)

G|------------------|-----------------|-----------------|-------------------|
D|------------------|-----------------|-----------------|-------------------|
A|------------------|-----------------|-3-3-3-3-3-3-3-3-|-3-3-3-3-3-3-3-3-3-|
E|------5r----------|-------3r--------|-----------------|-------------------| 




- Verse 2:
(It's not what I want anymore...)

G|-----------------|-----------------|-----------------|-----------------|
D|-----------------|-----------------|-----------------|-----------------|
A|-3-3-3-3-3-3-3-3-|-3-3-3-3-3-3-3-3-|-3-3-3-3-3-3-3-3-|-3-3-3-3-3-3-3-3-|
E|-----------------|-----------------|-----------------|-----------------| 




(I think it's the endings that I hate...)

G|-----------------|-----------------|-----------------|-----------------|
D|-----------------|-----------------|-----------------|-----------------|
A|-8-8-8-8-8-8-8-8-|-8-8-8-8-8-8-8-8-|-8-8-8-8-8-8-8-8-|-8-8-8-8-8-8-8-8-|
E|-----------------|-----------------|-----------------|-----------------|



(It's not what I want anymore...)

G|-----------------|-----------------|-----------------|-----------------|
D|-----------------|-----------------|-----------------|-----------------|
A|-3-3-3-3-3-3-3-3-|-3-3-3-3-3-3-3-3-|-3-3-3-3-3-3-3-3-|-3-3-3-3-3-3-3-3-|
E|-----------------|-----------------|-----------------|-----------------| 



(I'm missing the bridges that you burned...)

G|-----------------|-----------------|-----------------|-----------------|
D|-----------------|-----------------|-----------------|-----------------|
A|-8-8-8-8-8-8-8-8-|-8-8-8-8-8-8-8-8-|-8-8-8-8-8-8-8-8-|-8-8-8-8-8-8-8-8-|
E|-----------------|-----------------|-----------------|-----------------|




- Pre-Chorus:
(Stand closer, I get nervous...)

G|------------------|-----------------|-----------------|-------------------|
D|------------------|-----------------|-----------------|-------------------|
A|------------------|-----------------|-3-3-3-3-3-3-3-3-|-3-3-3-3-3-3-3-3-3-|
E|------5r----------|-------3r--------|-----------------|-------------------| 



(And I'm hopeless, and you're through...)

G|------------------|-----------------|-----------------|-------------------|
D|------------------|-----------------|-----------------|-------------------|
A|------------------|-----------------|-3-3-3-3-3-3-3-3-|-3-3-3-3-3-3-3-3-3-|
E|------5r----------|-------3r--------|-----------------|-------------------| 




- Chorus:
(But when you're next to me...)

G|-----------------|-----------------|-----------------|-----------------|
D|-----------------|-----------------|-----------------|-----------------|
A|-0-0-0-0-0-0-0-0-|-----------------|-----------------|-3-3-3-3---------|
E|-----------------|-3-3-3-3-3-3-3-3-|-1-1-1-1-1-1-1-1-|---------3-3-3-3-|  x4



(There's nothing left of you...)

G|-----------------|-----------------|-----------------|-----------------|
D|-----------------|-----------------|-----------------|-----------------|
A|-3r--------------|-----------------|-----------------|-----------------|
E|-----------------|-----------------|-----------------|-----------------| 




- Verse 2:

(It's not what I want anymore...)

G|-----------------|-----------------|-----------------|-----------------|
D|-----------------|-----------------|-----------------|-----------------|
A|-3-3-3-3-3-3-3-3-|-3-3-3-3-3-3-3-3-|-3-3-3-3-3-3-3-3-|-3-3-3-3-3-3-3-3-|
E|-----------------|-----------------|-----------------|-----------------| 



(But you are the only thing I see...)

G|-----------------|-----------------|-----------------|-----------------|
D|-----------------|-----------------|-----------------|-----------------|
A|-8-8-8-8-8-8-8-8-|-8-8-8-8-8-8-8-8-|-8-8-8-8-8-8-8-8-|-8-8-8-8-8-8-8-8-|
E|-----------------|-----------------|-----------------|-----------------|




- Pre-Chorus:
(Stand closer, I can't do this...)

G|------------------|-----------------|-----------------|-------------------|
D|------------------|-----------------|-----------------|-------------------|
A|------------------|-----------------|-3-3-3-3-3-3-3-3-|-3-3-3-3-3-3-3-3-3-|
E|------5r----------|-------3r--------|-----------------|-------------------| 



(And I'm hopeless, and you're through...)

G|------------------|-----------------|-----------------|-------------------|
D|------------------|-----------------|-----------------|-------------------|
A|------------------|-----------------|-3-3-3-3-3-3-3-3-|-3-3-3-3-3-3-3-3-3-|
E|------5r----------|-------3r--------|-----------------|-------------------| 




- Chorus:
(But when you're next to me...)

G|-----------------|-----------------|-----------------|-----------------|
D|-----------------|-----------------|-----------------|-----------------|
A|-0-0-0-0-0-0-0-0-|-----------------|-----------------|-3-3-3-3---------|
E|-----------------|-3-3-3-3-3-3-3-3-|-1-1-1-1-1-1-1-1-|---------3-3-3-3-|  x4



(There's nothing left of you...)

G|-----------------|-----------------|-----------------|-----------------|
D|-----------------|-----------------|-----------------|-----------------|
A|-3-3-3-3-3-3-3-3-|-3-3-3-3-3-3-3-3-|-3-3-3-3-3-3-3-3-|-3-3-3-3-3-3-3-3-|
E|-----------------|-----------------|-----------------|-----------------| 



(Nothing left nothing left of you...)

G|-----------------|-----------------|-----------------|-----------------|
D|-----------------|-----------------|-----------------|-----------------|
A|-----------------|-----------------|-----------------|-----------------|
E|-1-1-1-1-1-1-1-1-|-1-1-1-1-1-1-1-1-|-1-1-1-1-1-1-1-1-|-1-1-1-1-1-1-1-1-| 



(Nothing left nothing left of you...) 

G|-----------------|-----------------|-----------------|-----------------|
D|-----------------|-----------------|-----------------|-----------------|
A|-----------------|-----------------|-----------------|-----------------|
E|-5-5-5-5-5-5-5-5-|-5-5-5-5-5-5-5-5-|-5-5-5-5-5-5-5-5-|-5-5-5-5-5-5-5-5-|  



(Nothing left nothing left of you...) 

G|-----------------|-----------------|-----------------|-----------------|
D|-----------------|-----------------|-----------------|-----------------|
A|-----------------|-----------------|-----------------|-----------------|
E|-1-1-1-1-1-1-1-1-|-1-1-1-1-1-1-1-1-|-1-1-1-1-1-1-1-1-|-1-1-1-1-1-1-1-1-| 



- Chorus:
(But when you're next to me...)


G|-----------------|-----------------|-----------------|-----------------|
D|-----------------|-----------------|-----------------|-----------------|
A|-0-0-0-0-0-0-0-0-|-----------------|-----------------|-3-3-3-3---------|
E|-----------------|-3-3-3-3-3-3-3-3-|-1-1-1-1-1-1-1-1-|---------3-3-3-3-| 



(Why can't I get what's left of you?...) 

G|-----------------|-----------------|-----------------|-----------------|
D|-----------------|-----------------|-----------------|-----0---2-------|
A|-0-0-0-0-0-0-0-0-|---------------3-|-----------------|-3-------------3-|
E|-----------------|-3-3-3-3-3-3-3---|-1-1-1-1-1-1-1-1-|-----------------| 



(But when you're next to me...)

G|-----------------|-----------------|-----------------|-----------------|
D|-----------------|-----------------|-----------------|-----------------|
A|-0-0-0-0-0-0-0-0-|-----------------|-----------------|-3-3-3-3---------|
E|-----------------|-3-3-3-3-3-3-3-3-|-1-1-1-1-1-1-1-1-|---------3-3-3-3-|  



(Why can't I get what's left of you?...) 

G|-----------------|-----------------|-----------------|-----------------|
D|-----------------|-----------------|-----------------|-----0---2-------|
A|-0-0-0-0-0-0-0-0-|-----------------|-----------------|-3-------------3-|
E|-----------------|-3-3-3-3-3-3-3-3-|-1-1-1-1-1-1-1-1-|-----------------| 



(Why can't I get what's left of you?...)

G|-------------------------|-------------------------|-----------------|-----------------|
D|-------------------------|-------------------------|-----------------|-----------------|
A|-12-12-12-12-12-12-12-12-|-10-10-10-10-10-10-10-10-|-8-8-8-8-8-8-8-8-|-8-8-8-8-8-8-8-8-|
E|-------------------------|-------------------------|-----------------|-----------------| 




- Chorus:
(There's nothing left of you...)

G|-----------------|-----------------|-----------------|-----------------|
D|-----------------|-----------------|-----------------|-----------------|
A|-3-3-3-3-3-3-3-3-|-3-3-3-3-3-3-3-3-|-3-3-3-3-3-3-3-3-|-3-3-3-3-3-3-3-3-|
E|-----------------|-----------------|-----------------|-----------------| 



(Nothing left nothing left of you...)

G|-----------------|-----------------|-----------------|-----------------|
D|-----------------|-----------------|-----------------|-----------------|
A|-----------------|-----------------|-----------------|-----------------|
E|-1-1-1-1-1-1-1-1-|-1-1-1-1-1-1-1-1-|-1-1-1-1-1-1-1-1-|-1-1-1-1-1-1-1-1-| 



(Nothing left nothing left of you...) 

G|-----------------|-----------------|-------------------------|-------------------------|
D|-----------------|-----------------|-------------------------|-------------------------|
A|-----------------|-----------------|-------------------------|-------------------------|
E|-5-5-5-5-5-5-5-5-|-5-5-5-5-5-5-5-5-|-19-19-19-19-19-19-17-17-|-19-19-19-19-19-19-17-17-| 



(Nothing left nothing left of you...) 

G|-----------------|-----------------|-----------------|-------------------------------------|
D|-----------------|-----------------|-----------------|-------------------------------------|
A|-----------------|-----------------|-----------------|-------------------------------------|
E|-1-1-1-1-1-1-1-1-|-1-1-1-1-1-1-1-1-|-13-13-13-13-13-13-15-15-|-13-13-13-13-13-13-15-15-/8r-| 
            
Submit corrections

↑ Back to top | Tablatures and chords for acoustic guitar and electric guitar, ukulele, drums are parodies/interpretations of the original songs. You may use it for private study, scholarship, research or language learning purposes only