» » »

Allison - Miedo Tabs

Artists:  A B C D E F G H I J K L M N O P Q R S T U V W X Y Z # 

Miedo Tabs

(ver. 1) Click to play this song!
Allison
 Rating:
4.3/5 (12 votes)

 Miedo lessons Tabs too difficult? Try these video lessons and learn fast
 
                Intro
Guitarra1
E|---------------------|--------------------|---------------------|-------------|-----|
B|-------------------5-|------------------5-|-------------------5-|-------------|-----|
G|------5---4------5---|-----5---4------5---|------5---4------5---|-----5---4---|-----|
D|--1/5---5---3--3-----|-1/5---5---7--7-----|--1/5---5---3--3-----|-1/5---5---7-|-7-5-|
A|---------------------|--------------------|---------------------|-------------|-7-5-|
E|---------------------|--------------------|---------------------|-------------|-----|

Acompañamiento 
Guitarra 2
E|---------|---------|---------|---------|---------|---------|---------|-----|
B|---------|---------|---------|---------|---------|---------|---------|-----|
G|--(X7)---|---------|---(X7)--|---------|---(X7)--|---------|--(X3)---|-----|
D|---------|---------|---------|---------|---------|---------|---------|-----|
A|-3-3-3-3-|-5-5-5-5-|-7-7-7-7-|-5-5-5-5-|-3-3-3-3-|-5-5-5-5-|-7-7-7-7-|-7-5-|
E|-1-1-1-1-|-3-3-3-3-|-5-5-5-5-|-3-3-3-3-|-1-1-1-1-|-3-3-3-3-|-5-5-5-5-|-5-3-|

Guitarra 3
E|-------------|-----------------|-------------|-----------------|
B|-------------|-----------------|-------------|-----------------|
G|-------------|--------------12-|-------------|--------------12-|   
D|-------14----|-------14--------|-------14----|-------14--------|
A|-12-15----15-|-12-15----15-----|-12-15----15-|-12-15----15-----|
E|-------------|-----------------|-------------|-----------------|

E|-------------|-----------------|-------------|-------|
B|-------------|-----------------|-------------|-------|
G|-------------|--------------12-|-------------|-------|   
D|-------14----|-------14--------|-------14----|-------|
A|-12-15----15-|-12-15----15-----|-12-15----15-|-15-14-|
E|-------------|-----------------|-------------|-------|

VERSE
Ya no estoy seguro donde está tu sol      Donde estoy nunca he sabido a donde voy  
E|---------|---------|---------|---------|---------|---------|---------|---------|
B|---------|---------|---------|---------|---------|---------|---------|---------|
G|--(X7)---|---------|---(X7)--|---------|---(X7)--|---------|--(X4)---|---(X4)--|
D|---------|---------|---------|---------|---------|---------|---------|---------|
A|-3-3-3-3-|-5-5-5-5-|-7-7-7-7-|-5-5-5-5-|-3-3-3-3-|-5-5-5-5-|-7-7-7-7-|-5-5-5-5-|
E|-1-1-1-1-|-3-3-3-3-|-5-5-5-5-|-3-3-3-3-|-1-1-1-1-|-3-3-3-3-|-5-5-5-5-|-3-3-3-3-|

Acompañamiento
E|--------------------------------------------------------------------------------|
B|----------------------12-13----------12--------------------12-13-------------12-|
G|---12-----------------------------------12--------------------------------------|
D|--------------------------------------------------------------------------------|
A|--------------------------------------------------------------------------------|
E|--------------------------------------------------------------------------------|

PRE-CHORUS
Y cada día sin ti, se aleja más el norte, pierdo en mi buscar el horizonte debe ser que tú también estas igual
E|---------|---------|---------|---------|---------|---------|---------|-----|
B|---------|---------|---------|---------|---------|---------|---------|-----|
G|--(X7)---|---------|---(X7)--|---------|---(X7)--|---------|--(X3)---|-----|
D|---------|---------|---------|---------|---------|---------|---------|-----|
A|-3-3-3-3-|-5-5-5-5-|-7-7-7-7-|-5-5-5-5-|-3-3-3-3-|-5-5-5-5-|-7-7-7-7-|-7-5-|
E|-1-1-1-1-|-3-3-3-3-|-5-5-5-5-|-3-3-3-3-|-1-1-1-1-|-3-3-3-3-|-5-5-5-5-|-5-3-|

Acompañamiento
E|---------------------------------------------------------|--------|
B|-8-8-8-8-8-8-8-8-8-8-8-8-8-8-8-8-8-8-8-8-8-8-8-8-8-8-8-8-|--------|
G|---------------------------------------------------------|7-7-7-7-|
D|---------------------------------------------------------|--------|
A|---------------------------------------------------------|--------|
E|---------------------------------------------------------|--------|

E|---------------------------------------------------------|---------|
B|---------------------------------------------------------|---------|
G|-9-9-9-9-9-9-9-9-9-9-9-9-9-9-9-9-9-9-9-9-9-9-9-9-9-9-9-9-|-5-5-5-5-|
D|---------------------------------------------------------|---------|
A|---------------------------------------------------------|---------|
E|---------------------------------------------------------|---------|

E|---------------------------------------------------------|---------|-----------------------------------|
B|-8-8-8-8-8-8-8-8-8-8-8-8-8-8-8-8-8-8-8-8-8-8-8-8-8-8-8-8-|---------|-----------------------------------|
G|---------------------------------------------------------|-7-7-7-7-|-9-9-9-9-9-9-9-9-9-9-9-9-9-9-9-9-7-|
D|---------------------------------------------------------|---------|-----------------------------------|
A|---------------------------------------------------------|---------|-----------------------------------|
E|---------------------------------------------------------|---------|-----------------------------------|

CHORUS
Miedo a naufragar buscándote en mi toda mi verdad la llevas en ti
E|------------------------------------------------------------------|
B|------------------------------------------------------------------|
G|------------------------------------------------------------------|
D|-------------3------------------3------5-------7—---------------7-|
A|-------------3------------------3------5-------7---------------—7-|
E|-------------1------------------1------3-------5----------------5-|

Miedo a no entregarte todo de mi cuando estás aquí cuando estás aquí
E|------------------------------------------------------------------|
B|------------------------------------------------------------------|
G|------------------------------------------------------------------|
D|--------5-------3------------3------5-----7—---------------5------|
A|--------5-------3------------3------5-----7---------------—5------|
E|--------3-------1------------1------3-----5----------------3------|

Acompañamiento
E|--------------------------|----------------------|
B|-----------------------13-|----------------------|
G|--------12----------------|-------12----------12-|  X3
D|-----10----10----10-------|----10----10----10----|
A|--12----------12----12----|-12----------12-------|
E|--------------------------|----------------------|

E|-------------------------|
B|----------------------13-|
G|--------12-------12------|
D|-----10-------10---------|
A|--12-------12------------|
E|-------------------------|

Intro
Guitarra 1
E|---------------------|--------------------|---------------------|------------------|
B|-------------------5-|------------------5-|-------------------5-|------------------|
G|------5---4------5---|-----5---4------5---|------5---4------5---|-----5---4--------|
D|-—1/5---5---3--3-----|-1/5---5---7--7-----|--1/5---5---3--3-----|-1/5---5---7--7-5-|
A|---------------------|--------------------|---------------------|--------------7-5-|
E|---------------------|--------------------|---------------------|------------------|

Acompañamiento 
Guitarra 2 
E|---------|---------|---------|---------|---------|---------|---------|-----|
B|---------|---------|---------|---------|---------|---------|---------|-----|
G|--(X7)---|---------|---(X7)--|---------|---(X7)--|---------|--(X3)---|-----|
D|---------|---------|---------|---------|---------|---------|---------|-----|
A|-3-3-3-3-|-5-5-5-5-|-7-7-7-7-|-5-5-5-5-|-3-3-3-3-|-5-5-5-5-|-7-7-7-7-|-7-5-|
E|-1-1-1-1-|-3-3-3-3-|-5-5-5-5-|-3-3-3-3-|-1-1-1-1-|-3-3-3-3-|-5-5-5-5-|-5-3-|

Guitarra 3
E|-------------|-----------------|-------------|-----------------|
B|-------------|-----------------|-------------|-----------------|
G|-------------|--------------12-|-------------|--------------12-|   
D|-------14----|-------14--------|-------14----|-------14--------|
A|-12-15----15-|-12-15----15-----|-12-15----15-|-12-15----15-----|
E|-------------|-----------------|-------------|-----------------|

E|-------------|-----------------|-------------|-------|
B|-------------|-----------------|-------------|-------|
G|-------------|--------------12-|-------------|-------|   
D|-------14----|-------14--------|-------14----|-------|
A|-12-15----15-|-12-15----15-----|-12-15----15-|-15-14-|
E|-------------|-----------------|-------------|-------|

VERSE
Cielo y mar unidos por causalidad   la verdad es que no te puedo dejar 
E|---------|---------|---------|---------|---------|---------|---------|---|
B|---------|---------|---------|---------|---------|---------|---------|---|
G|--(X7)---|---------|---(X7)--|---------|---(X7)--|---------|--(X3)---|---|
D|---------|---------|---------|---------|---------|---------|---------|---|
A|-3-3-3-3-|-5-5-5-5-|-7-7-7-7-|-5-5-5-5-|-3-3-3-3-|-5-5-5-5-|-7-7-7-7-|-5-|
E|-1-1-1-1-|-3-3-3-3-|-5-5-5-5-|-3-3-3-3-|-1-1-1-1-|-3-3-3-3-|-5-5-5-5-|-3-|

Acompañamiento
E|--------------------------------------------------------------------------------|
B|----------------------12-13----------12--------------------12-13-------------12-|
G|---12-----------------------------------12--------------------------------------|
D|--------------------------------------------------------------------------------|
A|--------------------------------------------------------------------------------|
E|--------------------------------------------------------------------------------|

PRE-CHORUS
Cuando estás aquí nos queman las miradas viajo en ti las dunas de tu cama siento 
ir corriendo a ti mi alma sin dudar
E|---------|---------|---------|---------|---------|---------|---------|-----|
B|---------|---------|---------|---------|---------|---------|---------|-----|
G|--(X7)---|---------|---(X7)--|---------|---(X7)--|---------|--(X3)---|-----|
D|---------|---------|---------|---------|---------|---------|---------|-----|
A|-3-3-3-3-|-5-5-5-5-|-7-7-7-7-|-5-5-5-5-|-3-3-3-3-|-5-5-5-5-|-7-7-7-7-|-7-5-|
E|-1-1-1-1-|-3-3-3-3-|-5-5-5-5-|-3-3-3-3-|-1-1-1-1-|-3-3-3-3-|-5-5-5-5-|-5-3-|

Acompañamiento
E|---------------------------------------------------------|---------|
B|-8-8-8-8-8-8-8-8-8-8-8-8-8-8-8-8-8-8-8-8-8-8-8-8-8-8-8-8-|---------|
G|---------------------------------------------------------|-7-7-7-7-|
D|---------------------------------------------------------|---------|
A|---------------------------------------------------------|---------|
E|---------------------------------------------------------|---------|

E|---------------------------------------------------------|--------|
B|---------------------------------------------------------|--------|
G|-9-9-9-9-9-9-9-9-9-9-9-9-9-9-9-9-9-9-9-9-9-9-9-9-9-9-9-9-|5-5-5-5-|
D|---------------------------------------------------------|--------|
A|---------------------------------------------------------|--------|
E|---------------------------------------------------------|--------|

E|---------------------------------------------------------|---------|----------------------------------|
B|-8-8-8-8-8-8-8-8-8-8-8-8-8-8-8-8-8-8-8-8-8-8-8-8-8-8-8-8-|---------|----------------------------------|
G|---------------------------------------------------------|-7-7-7-7-|9-9-9-9-9-9-9-9-9-9-9-9-9-9-9-9-7-|
D|---------------------------------------------------------|---------|----------------------------------|
A|---------------------------------------------------------|---------|----------------------------------|
E|---------------------------------------------------------|---------|----------------------------------|

CHORUS 
Miedo a naufragar buscándote en mi toda mi verdad la llevas en ti
E|------------------------------------------------------------------|
B|------------------------------------------------------------------|
G|------------------------------------------------------------------|
D|-------------3------------------3------5-------7—---------------7-|
A|-------------3------------------3------5-------7---------------—7-|
E|-------------1------------------1------3-------5----------------5-|

Miedo a no entregarte todo de mi cuando estás aquí cuando estás aquí
E|------------------------------------------------------------------|
B|------------------------------------------------------------------|
G|------------------------------------------------------------------|
D|--------5-------3------------3------5-----7—---------------5------|
A|--------5-------3------------3------5-----7---------------—5------|
E|--------3-------1------------1------3-----5----------------3------|

Acompañamiento
E|--------------------------|----------------------|
B|-----------------------13-|----------------------|
G|--------12----------------|-------12----------12-|  X3
D|-----10----10----10-------|----10----10----10----|
A|--12----------12----12----|-12----------12-------|
E|--------------------------|----------------------|

E|-------------------------|
B|----------------------13-|
G|--------12-------12------|
D|-----10-------10---------|
A|--12-------12------------|
E|-------------------------|

BRIDGE 
¿Dónde estoy?        ¿A dónde voy?        ¿Dónde estoy?     La respuesta eres tu 
E|--------------------------------------------------------------------------------|
B|----------------------12-13----------12--------------------12-13-------------12-|
G|---12-----------------------------------12--------------------------------------|
D|--------------------------------------------------------------------------------|
A|--------------------------------------------------------------------------------|
E|--------------------------------------------------------------------------------|

CHORUS
             (¿Dónde estoy?    ¿A dónde voy? La respuesta eres tu) 
Miedo a naufragar buscándote en mi toda mi verdad la llevas en ti
E|------------------------------------------------------------------|
B|------------------------------------------------------------------|
G|------------------------------------------------------------------|
D|-------------3------------------3------5-------7—---------------7-|
A|-------------3------------------3------5-------7---------------—7-|
E|-------------1------------------1------3-------5----------------5-|
               (¿Dónde estoy?    ¿A dónde voy? La respuesta eres tu)
Miedo a no entregarte todo de mi cuando estás aquí cuando estás aquí
E|------------------------------------------------------------------|
B|------------------------------------------------------------------|
G|------------------------------------------------------------------|
D|--------5-------3------------3------5-----7—---------------5------|
A|--------5-------3------------3------5-----7---------------—5------|
E|--------3-------1------------1------3-----5----------------3------|

Acompañamiento
E|--------------------------|----------------------|
B|-----------------------13-|----------------------|
G|--------12----------------|-------12----------12-|  X3
D|-----10----10----10-------|----10----10----10----|
A|--12----------12----12----|-12----------12-------|
E|--------------------------|----------------------|

E|-------------------------|
B|----------------------13-|
G|--------12-------12------|
D|-----10-------10---------|
A|--12-------12------------|
E|-------------------------|

FINAL 
¿Dónde estoy?  ¿A dónde voy?     La respuesta eres tú     ¿Dónde estoy? ¿A dónde voy?  La respuesta eres tu
E|--------------------------------------------------------------------------------------------------------|
B|-------------------------------12-13-----------------------12--------------------------12-13------------|
G|---12---------------------------------------------------12----------------------------------------------|
D|--------------------------------------------------------------------------------------------------------|
A|--------------------------------------------------------------------------------------------------------|
E|--------------------------------------------------------------------------------------------------------|

E|------------------------|
B|---12------12-13----12--|
G|------12----------------|
D|------------------------|
A|------------------------|
E|------------------------|

            
Submit corrections


        Miedo lessons Hard to play? Try these video lessons and learn fast Miedo lessons
        
↑ Back to top | Tablatures and chords for acoustic guitar and electric guitar, ukulele, drums are parodies/interpretations of the original songs. You may use it for private study, scholarship, research or language learning purposes only